» » »

401 Kill Bass tabs (ver.2)

Artists:  A B C D E F G H I J K L M N O P Q R S T U V W X Y Z # 

401 Kill Bass tabs (ver.2)

Rise Against
Rating:
0/5 (0 votes)

Hard to play? Try these video lessons and learn fast.
                Band: Rise Against
Bassist: Joe Principe

INTRO

G|-----------------|-----------------|-----------------|-----------------|
D|-----------------|-----------------|-----------------|-----------------|
A|-----------------|-----------------|-0-0-0-2---2-2---|-4-4-4-----4-4---|
E|---------------22|-2-2-2-----2-2---|-----------------|-----------------|
   1 + 2 + 3 + 4 +   1 + 2 + 3 + 4 +   1 + 2 + 3 + 4 +   1 + 2 + 3 + 4 + 

G|-----------------|-----------------|-----------------|-----------------|
D|-----------------|-----------------|-----------------|-----------------|
A|-7-7-7-4---4-4---|-9-9-9-----9-9---|-7-7-7-5---5-5---|-4-4-4-444-4-4-4-|
E|-----------------|-----------------|-----------------|-----------------|
   1 + 2 + 3 + 4 +   1 + 2 + 3 + 4 +   1 + 2 + 3 + 4 +   1 + 2 + 3 + 4 +

G|-----------------|-----------------|-----------------|-----------------|
D|-----------------|-----------------|-----------------|-----------------|
A|-5-5-5-4---4-4---|-----------------|-0-0-0-2---2-2---|-4-4-4-----4-4---|
E|-----------------|-2-2-2-----2-2---|-----------------|-----------------|
   1 + 2 + 3 + 4 +   1 + 2 + 3 + 4 +   1 + 2 + 3 + 4 +   1 + 2 + 3 + 4 +  

G|-----------------|-----------------|-----------------|-----------------|
D|-----------------|-----------------|-----------------|-----------------|
A|-7-7-7-4---4-4---|-9-9-9-----9-9---|-7-7-7-5---5-5---|-4-4-4-444-4-4-4-|
E|-----------------|-----------------|-----------------|-----------------|
   1 + 2 + 3 + 4 +   1 + 2 + 3 + 4 +   1 + 2 + 3 + 4 +   1 + 2 + 3 + 4 +

G|-----------------||
D|-----------------||
A|-5-5-5-4---4-4---||
E|-----------------||
   1 + 2 + 3 + 4 +  

VERSE

G|-----------------|-----------------|-----------------|-----------------|
D|-----------------|-----------------|-----------------|-----------------|
A|-----------------|-0-0-0-2---2-2---|-4-4-4-----4-4---|-4-4-4-4---4-5-7-|
E|-2-2-2-----2-2---|-----------------|-----------------|-----------------|
   1 + 2 + 3 + 4 +   1 + 2 + 3 + 4 +   1 + 2 + 3 + 4 +   1 + 2 + 3 + 4 +

G|-----------------|-----------------|-----------------|-----------------|
D|-----------------|-----------------|-----------------|-----------------|
A|-9-9-9-----9-9---|-7-7-7-5---5-5---|-4-4-4-----4-4---|-4-4-4-4---4-4---|
E|-----------------|-----------------|-----------------|-----------------|
   1 + 2 + 3 + 4 +   1 + 2 + 3 + 4 +   1 + 2 + 3 + 4 +   1 + 2 + 3 + 4 +

G|-----------------|-----------------|-----------------|-----------------|
D|-----------------|-----------------|-----------------|-----------------|
A|-----------------|-0-0-0-2---2-2---|-4-4-4-----4-4---|-4-4-4-4---4-5-7-|
E|-2-2-2-----2-2---|-----------------|-----------------|-----------------|
   1 + 2 + 3 + 4 +   1 + 2 + 3 + 4 +   1 + 2 + 3 + 4 +   1 + 2 + 3 + 4 +

G|-----------------|-----------------|-----------------|-----------------||
D|-----------------|-----------------|-----------------|-----------------||
A|-9-9-9-----9-9---|-7-7-7-5---5-5---|-4-4-4-----4-4---|-4-4-4-4---4-0---||
E|-----------------|-----------------|-----------------|-----------------||
   1 + 2 + 3 + 4 +   1 + 2 + 3 + 4 +   1 + 2 + 3 + 4 +   1 + 2 + 3 + 4 +

CHORUS

G|-----------------|-----------------|-----------------|-----------------|
D|-----------------|-----------------|-----------------|-----------------|
A|-2-2-2-2-2-2-2-2-|-2-2-2-2-5-5-5-4-|---4-4---4-4-4-4-|---4-4---4-4-0---|
E|-----------------|-----------------|-----------------|-----------------|
   1 + 2 + 3 + 4 +   1 + 2 + 3 + 4 +   1 + 2 + 3 + 4 +   1 + 2 + 3 + 4 +

G|-----------------|-----------------|-----------------|-----------------|
D|-----------------|-----------------|-----------------|-----------------|
A|-2-2-2-2-2-2-2-2-|-2-2-2-2-5-5-5-4-|---4-4---4-4-4-4-|---4-4-4---4-0---|
E|-----------------|-----------------|-----------------|-----------------|
   1 + 2 + 3 + 4 +   1 + 2 + 3 + 4 +   1 + 2 + 3 + 4 +   1 + 2 + 3 + 4 +

G|-----------------|-----------------|-----------------|-----------------|
D|-----------------|-----------------|-----------------|-----------------|
A|-2-2-2-2-2-2-2-2-|-2-2-2-2-5-5-5-4-|---4-4---4-4-4-4-|---4-4---4-4-0---|
E|-----------------|-----------------|-----------------|-----------------|
   1 + 2 + 3 + 4 +   1 + 2 + 3 + 4 +   1 + 2 + 3 + 4 +   1 + 2 + 3 + 4 +


G|-----------------|-----------------|-----------------|-----------------||
D|-----------------|-----------------|-----------------|-----------------||
A|-2-2-2-2-2-2-2-2-|-2-2-2-2-5-5-5-4-|---4-4---4-4-4-4-|-4---------------||
E|-----------------|-----------------|-----------------|-----4---5-4-0---||
   1 + 2 + 3 + 4 +   1 + 2 + 3 + 4 +   1 + 2 + 3 + 4 +   1 + 2 + 3 + 4 +

INTERLUDE

G|-----------------|-----------------|-----------------|-----------------|
D|-----------------|-----------------|-----------------|-----------------|
A|-----------------|-0-0-0-2---2-2---|-4-4-4-----4-4---|-7-7-7-4---4-4---|
E|-2-2-2-----2-2---|-----------------|-----------------|-----------------|
   1 + 2 + 3 + 4 +   1 + 2 + 3 + 4 +   1 + 2 + 3 + 4 +   1 + 2 + 3 + 4 + 

G|-----------------|-----------------|-----------------|-----------------||
D|-----------------|-----------------|-----------------|-----------------||
A|-9-9-9-----9-9---|-7-7-7-5---5-5---|-4-4-4-444-4-4-4-|-5-5-5-4-4-4-4-4-||
E|-----------------|-----------------|-----------------|-----------------||
   1 + 2 + 3 + 4 +   1 + 2 + 3 + 4 +   1 + 2 + 3 + 4 +   1 + 2 + 3 + 4 +

VERSE

G|-----------------|-----------------|-----------------|-----------------|
D|-----------------|-----------------|-----------------|-----------------|
A|-----------------|-0-0-0-2---2-2---|-4-4-4-----4-4---|-4-4-4-4---4-5-7-|
E|-2-2-2-----2-2---|-----------------|-----------------|-----------------|
   1 + 2 + 3 + 4 +   1 + 2 + 3 + 4 +   1 + 2 + 3 + 4 +   1 + 2 + 3 + 4 +

G|-----------------|-----------------|-----------------|-----------------|
D|-----------------|-----------------|-----------------|-----------------|
A|-9-9-9-----9-9---|-7-7-7-5---5-5---|-4-4-4-----4-4---|-4-4-4-4---4-4---|
E|-----------------|-----------------|-----------------|-----------------|
   1 + 2 + 3 + 4 +   1 + 2 + 3 + 4 +   1 + 2 + 3 + 4 +   1 + 2 + 3 + 4 +

G|-----------------|-----------------|-----------------|-----------------|
D|-----------------|-----------------|-----------------|-----------------|
A|-----------------|-0-0-0-2---2-2---|-4-4-4-----4-4---|-4-4-4-4---4-5-7-|
E|-2-2-2-----2-2---|-----------------|-----------------|-----------------|
   1 + 2 + 3 + 4 +   1 + 2 + 3 + 4 +   1 + 2 + 3 + 4 +   1 + 2 + 3 + 4 +

G|-----------------|-----------------|-----------------|-----------------||
D|-----------------|-----------------|-----------------|-----------------||
A|-9-9-9-----9-9---|-7-7-7-5---5-5---|-4-4-4-----4-4---|-4-4-4-4---4-0---||
E|-----------------|-----------------|-----------------|-----------------||
   1 + 2 + 3 + 4 +   1 + 2 + 3 + 4 +   1 + 2 + 3 + 4 +   1 + 2 + 3 + 4 +

CHORUS

G|-----------------|-----------------|-----------------|-----------------|
D|-----------------|-----------------|-----------------|-----------------|
A|-2-2-2-2-2-2-2-2-|-2-2-2-2-5-5-5-4-|---4-4---4-4-4-4-|---4-4---4-4-0---|
E|-----------------|-----------------|-----------------|-----------------|
   1 + 2 + 3 + 4 +   1 + 2 + 3 + 4 +   1 + 2 + 3 + 4 +   1 + 2 + 3 + 4 +

G|-----------------|-----------------|-----------------|-----------------|
D|-----------------|-----------------|-----------------|-----------------|
A|-2-2-2-2-2-2-2-2-|-2-2-2-2-5-5-5-4-|---4-4---4-4-4-4-|---4-4-4---4-0---|
E|-----------------|-----------------|-----------------|-----------------|
   1 + 2 + 3 + 4 +   1 + 2 + 3 + 4 +   1 + 2 + 3 + 4 +   1 + 2 + 3 + 4 +

G|-----------------|-----------------|-----------------|-----------------|
D|-----------------|-----------------|-----------------|-----------------|
A|-2-2-2-2-2-2-2-2-|-2-2-2-2-5-5-5-4-|---4-4---4-4-4-4-|---4-4---4-4-0---|
E|-----------------|-----------------|-----------------|-----------------|
   1 + 2 + 3 + 4 +   1 + 2 + 3 + 4 +   1 + 2 + 3 + 4 +   1 + 2 + 3 + 4 +

G|-----------------|-----------------|-----------------|-----------------||
D|-----------------|-----------------|-----------------|-----------------||
A|-2-2-2-2-2-2-2-2-|-2-2-2-2-5-5-5-4-|---4-4---4-4-4-4-|-4-------4-------||
E|-----------------|-----------------|-----------------|-----------------||
   1 + 2 + 3 + 4 +   1 + 2 + 3 + 4 +   1 + 2 + 3 + 4 +   1 + 2 + 3 + 4 +

BRIDGE

G|-----------------|-----------------|-----------------|-----------------|
D|-----------------|-----------------|-----------------|-----------------|
A|-5-5-5-----------|-----------------|-5-5-5-----------|-----------------|
E|---------------2-|---2-2---2-2-2---|---------------2-|---2-2---2-2-2---|
   1 + 2 + 3 + 4 +   1 + 2 + 3 + 4 +   1 + 2 + 3 + 4 +   1 + 2 + 3 + 4 +

G|-----------------|-----------------|-----------------|-----------------|
D|-----------------|-----------------|-----------------|-----------------|
A|-5-5-5-----------|-----------------|-7-7-7---7-7-7-4-|---4-4---4-4-4---|
E|---------------2-|---2-2---2-2-2---|-----------------|-----------------|
   1 + 2 + 3 + 4 +   1 + 2 + 3 + 4 +   1 + 2 + 3 + 4 +   1 + 2 + 3 + 4 +

G|-----------------|-----------------|-----------------|-----------------|
D|-----------------|-----------------|-----------------|-----------------|
A|-5-5-5-----------|-----------------|-5-5-5-----------|-----------------|
E|---------------2-|---2-2---2-2-2---|---------------2-|---2-2---2-2-2---|
   1 + 2 + 3 + 4 +   1 + 2 + 3 + 4 +   1 + 2 + 3 + 4 +   1 + 2 + 3 + 4 +

G|-----------------|-----------------|-----------------|-----------------||
D|-----------------|-----------------|-----------------|-----------------||
A|-5-5-5-----------|-----------------|-7-7-7---7-7-7-4-|---4-4---4-4-4---||
E|---------------2-|---2-2---2-2-2---|-----------------|-----------------||
   1 + 2 + 3 + 4 +   1 + 2 + 3 + 4 +   1 + 2 + 3 + 4 +   1 + 2 + 3 + 4 +

INTERLUDE

G|-----------------|-----------------|-----------------|-----------------|
D|-----------------|-----------------|-----------------|-----------------|
A|-----------------|-----------------|-----------------|-----------------|
E|-2---------------|-----------------|-----------------|-----------------|
   1 + 2 + 3 + 4 +   1 + 2 + 3 + 4 +   1 + 2 + 3 + 4 +   1 + 2 + 3 + 4 +

G|-----------------|-----------------|-----------------|-----------------||
D|-----------------|-----------------|-----------------|-----------------||
A|-----------------|-----------------|-----------------|-----------------||
E|-----------------|-----------------|-----------------|-----------------||
   1 + 2 + 3 + 4 +   1 + 2 + 3 + 4 +   1 + 2 + 3 + 4 +   1 + 2 + 3 + 4 +

OUTRO

G|-----------------|-----------------|-----------------|-----------------|
D|-----------------|-----------------|-----------------|-----------------|
A|-----------------|-----------------|-5---5---5-5-5-7-|---7-7---7-7-7-7-|
E|-2---2---2-2-2-2-|---2-2---2-2-2---|-----------------|-----------------|
   1 + 2 + 3 + 4 +   1 + 2 + 3 + 4 +   1 + 2 + 3 + 4 +   1 + 2 + 3 + 4 +

G|-----------------|-----------------|-----------------|-----------------|
D|-----------------|-----------------|-----------------|-----------------|
A|-----------------|-----------------|-5---5---5-5-5---|-----------------|
E|-2---2---2-2-2-2-|---2-2---2-2-2---|---------------0-|---0-0---0-0-0-0-|
   1 + 2 + 3 + 4 +   1 + 2 + 3 + 4 +   1 + 2 + 3 + 4 +   1 + 2 + 3 + 4 +

G|-----------------|-----------------|-----------------|-----------------|
D|-----------------|-----------------|-----------------|-----------------|
A|-9-9-9-9-9-9-9-9-|-9-9-9-9-9-9-9-9-|-5-5-5-5-5-5-5-7-|-7-7-7-7-7-7-7-7-|
E|-----------------|-----------------|-----------------|-----------------|
   1 + 2 + 3 + 4 +   1 + 2 + 3 + 4 +   1 + 2 + 3 + 4 +   1 + 2 + 3 + 4 +

G|-----------------|-----------------|-----------------|-----------------|
D|-----------------|-----------------|-----------------|-----------------|
A|-9-9-9-9-9-9-9-9-|-9-9-9-9-9-9-9-9-|-5-5-5-5-5-5-5-7-|-7-7-7-7-7-7-7-7-|
E|-----------------|-----------------|-----------------|-----------------|
   1 + 2 + 3 + 4 +   1 + 2 + 3 + 4 +   1 + 2 + 3 + 4 +   1 + 2 + 3 + 4 +

G|-----------------|-----------------|-----------------|-----------------|
D|-----------------|-----------------|-----------------|-----------------|
A|-9-9-9-9-9-9-9-9-|-9-9-9-9-9-9-9-9-|-5-5-5-5-5-5-5-7-|-7-7-7-7-7-7-7-7-|
E|-----------------|-----------------|-----------------|-----------------|
   1 + 2 + 3 + 4 +   1 + 2 + 3 + 4 +   1 + 2 + 3 + 4 +   1 + 2 + 3 + 4 +

G|-----------------|-----------------|-----------------|-----------------|
D|-----------------|-----------------|-----------------|-----------------|
A|-9-9-9-9-9-9-9-9-|-9-9-9-9-9-9-9-9-|-5-5-5-5-5-5-5-5-|-----------------|
E|-----------------|-----------------|-----------------|-0-0-0-0-0-0-0-0-|
   1 + 2 + 3 + 4 +   1 + 2 + 3 + 4 +   1 + 2 + 3 + 4 +   1 + 2 + 3 + 4 +

G|-----------------|-----------------|-----------------|-----------------||
D|-----------------|-----------------|-----------------|-----------------||
A|-----------------|-----------------|-----------------|-----------------||
E|-----2-----------|-----------------|-----------------|-----------------||
   1 + 2 + 3 + 4 +   1 + 2 + 3 + 4 +   1 + 2 + 3 + 4 +   1 + 2 + 3 + 4 +
            
Hard to play? Try these video lessons and learn fast. | Correct




comments powered by Disqus
↑ Back to top | Tablatures and chords are parodies/interpretations of the original songs. You may use it for private study, scholarship, research or language learning purposes only