» » »

Ringside, Tired Of Being Sorry Tabs (ver.2)

Artists:  A B C D E F G H I J K L M N O P Q R S T U V W X Y Z # 

Tired Of Being Sorry Tabs (ver.2)

Ringside Tabs
 Rating:
4.2/5 (5 votes)
Tired Of Being Sorry lessons Tabs too difficult? Try these video lessons and learn fast
1
                ----------------------------------------------------------------------------
                      Tried of Being Sorry - Ringside
----------------------------------------------------------------------------

Tuning: Standard

This an easy song to play. Listen to the song to get strumming patterns and the overall
feel. I provided the chords for the first chorus but in the actual song they are not
played. Also the soloing during the final two choruses is really close to the solo and
can be figured out easily. Good luck and have fun. E-mail me for questions.

Chords

    A  Bm Em F#m
e|--0--2--0--2--|
B|--2--3--0--2--|
G|--2--4--0--2--|
D|--2--4--2--4--|
A|--0--4--2--4--|
E|--x--x--0--2--|


Intro
e|-----------------|-----------------------|
B|---7-8-7-5-3-5---|---7-7-7-7/8\5-3-5-0---|
G|-----------------|-----------------------|
D|-----------------|-----------------------|
A|-----------------|-----------------------|
E|-----------------|-----------------------|

e|---5/7-5-3-3/5---|-------------------|
B|---7/8-7-5-5/7---|---2h3h5-3-2h3p2---|
G|-----------------|-------------------|
D|-----------------|-------------------|
A|-----------------|-------------------|
E|-----------------|-------------------|

Verse 1
             Em
I don't know why

                        Bm
You want to follow me tonight

                      Em
When the rest of the world

                                  Bm
With whom I've crossed and I've quarreled


Verse 2
              Em
Let's me down so

                               Bm
For a thousand reasons that I know

                       Em
To share forever the unrest

                        F#m
With all the demons I possess

                    Bm
Beneath the silver moon


Chorus

     Bm                Em    A
     Maybe you were right
e|---------------------------|
B|---8-----7---5----3----5---|
G|---------------------------|
D|---------------------------|
A|---------------------------|
E|---------------------------|

                 Bm       Em
But baby I was lonely

     Em                       A
     I don't want to fight
e|---------------------------|
B|---8---7---5----3----5-----|
G|---------------------------|
D|---------------------------|
A|---------------------------|
E|---------------------------|

A                   Bm
I'm tired of being sorry

Solo
e|----------------------|-----------------------|
B|---7-7-7-7/8-7-5-3-5--|---7-7-7-7/8-7-5-3-0---|
G|----------------------|-----------------------|
D|----------------------|-----------------------|
A|----------------------|-----------------------|
E|----------------------|-----------------------|

e|---5/7-7-5-5-3-3/5---|-------------------|
B|---7/8-8-7-7-5-5/7---|---2h3h5-2p3-------|
G|---------------------|-------------------|
D|---------------------|-------------------|
A|---------------------|-------------------|
E|---------------------|-------------------|


Verse 3
                  Em
Chandler and Van Nuys

                                 Bm
With all the vampires and their brides

                         Em
We're all bloodless and blind

                   F#m
And longing for a life

                   Bm
Beyond the silver moon


Chorus

     Bm                Em    A
     Maybe you were right
e|---------------------------|
B|---8-----7---5----3----5---|
G|---------------------------|
D|---------------------------|
A|---------------------------|
E|---------------------------|

                 Bm       Em
But baby I was lonely

     Em                       A
     I don't want to fight
e|---------------------------|
B|---8---7---5----3----5-----|
G|---------------------------|
D|---------------------------|
A|---------------------------|
E|---------------------------|

A                   Bm
I'm tired of being sorry

                      Em
I'm standing in the street

                Bm
Crying out for you

            Em
No one sees me

                Bm
But the silver moon


Interlude
Em   A   Bm  Em  A  Bm

Bm
So far away – so outer space

Em
I've trashed myself – I've lost my way

F#m
I've got to get to you

I've got to get to you


Chorus

Bm                Em    A
Maybe you were right

                 Bm       Em
But baby I was lonely

Em                       A
I don't want to fight

A                   Bm
I'm tired of being sorry

                      Em
I'm standing in the street

                Bm
Crying out for you

            Em
No one sees me

                Bm
But the silver moon


| /  slide up
| \  slide down
| h  hammer-on
| p  pull-off
| ~  vibrato
| +  harmonic
| x  Mute note

============================================================================
            
Submit corrections

comments powered by Disqus
↑ Back to top | Ringside Tabs for Tired Of Being Sorry. Lyrics for acoustic guitar and electric guitar. 1 Tablatures and chords are parodies/interpretations of the original songs. You may use it for private study, scholarship, research or language learning purposes only