>
 >
Tired Of Being Sorry

Tired Of Being Sorry Guitar Tabs

Ringside - Tired Of Being Sorry chords, tabs, tablatures, lyrics

Guitar lessons | Add/correct | Request | Top 50 tabs Artists:  A B C D E F G H I J K L M N O P Q R S T U V W X Y Z 0-9

Tired Of Being Sorry Guitar Tabs – Ringside

CD, Sheet music, Poster

Do you like Tired Of Being Sorry? Share with your friends now
ChordsTabsTabs v2Ukulele

Really Easy Song as long as you know how to bar :D
I play this on acoustic Sounds really nice


KEY:
/ SLIDE
* HOLD NOTE
h HAMMER ON
p PULL OFF
x MUTE

Lead Guitar-Intro
E-------------------------------------------------------------|
B-------------------------------------------------------------|
G---11-12-11---9-7-9*---11-11-11-11h12-11---9-7---------------|
D------------------------------------------------9-*----------|
A-------------------------------------------------------------|
E-------------------------------------------------------------|

E-----7-5-3-2/3*----------------------------------------------|
B---8-8-7-5-3h5*-------5--------------------------------------|
G------------------6h7---7-6h7p6*-----------------------------|
D-------------------------------------------------------------|
A-------------------------------------------------------------|
E-------------------------------------------------------------|


After The First Few Lyrics You Play This or If you want you can play this while singing 
intro- Whatever Works for you.

Rhythm Guitar

..Why......................you wanna follow me
E--0---0---x---0---x---0---x---0---0---x----------------------|
B--0---0---x---0---x---0---x---0---0---x----------------------|
G--0---0---x---0---x---0---x---0---0---x----------------------|
D--2---2---x---2---x---2---x---2---2---x----------------------|
A--2---2---x---2---x---2---x---2---2---x----------------------|
E--0---0---x---0---x---0---x---0---0---x----------------------|

tonight....................When the rest of the
E--2---2---x---2---x---2---x---2---2---x----------------------|
B--3---3---x---3---x---3---x---3---3---x----------------------|
G--4---4---x---4---x---4---x---4---4---x----------------------|
D--4---4---x---4---x---4---x---4---4---x----------------------|
A--2---2---x---2---x---2---x---2---2---x----------------------|
E--x---x---x---x---x---x---x---x---x---x----------------------|

World......................With Whom I've Crossed and I've
E--0---0---x---0---x---0---x---0---0---x----------------------|
B--0---0---x---0---x---0---x---0---0---x----------------------|
G--0---0---x---0---x---0---x---0---0---x----------------------|
D--2---2---x---2---x---2---x---2---2---x----------------------|
A--2---2---x---2---x---2---x---2---2---x----------------------|
E--0---0---x---0---x---0---x---0---0---x----------------------|

Quarreled.....................Let's Me Down
E--2---2---x---x---2---x---2----------------------------------|
B--2---2---x---x---2---x---2----------------------------------|
G--2---2---x---x---2---x---2----------------------------------|
D--4---4---x---x---4---x---4----------------------------------|
A--4---4---x---x---4---x---4----------------------------------|
E--2---2---x---x---2---x---2----------------------------------|

..So......................For Thousand Reasons That I
E--0---0---x---0---x---0---x---0---0---x----------------------|
B--0---0---x---0---x---0---x---0---0---x----------------------|
G--0---0---x---0---x---0---x---0---0---x----------------------|
D--2---2---x---2---x---2---x---2---2---x----------------------|
A--2---2---x---2---x---2---x---2---2---x----------------------|
E--0---0---x---0---x---0---x---0---0---x----------------------|

Know....................To Share Forever The
E--2---2---x---2---x---2---x---2---2---x----------------------|
B--3---3---x---3---x---3---x---3---3---x----------------------|
G--4---4---x---4---x---4---x---4---4---x----------------------|
D--4---4---x---4---x---4---x---4---4---x----------------------|
A--2---2---x---2---x---2---x---2---2---x----------------------|
E--x---x---x---x---x---x---x---x---x---x----------------------|

Unrest......................With All The Demons I
E--0---0---x---0---x---0---x---0---0---x----------------------|
B--0---0---x---0---x---0---x---0---0---x----------------------|
G--0---0---x---0---x---0---x---0---0---x----------------------|
D--2---2---x---2---x---2---x---2---2---x----------------------|
A--2---2---x---2---x---2---x---2---2---x----------------------|
E--0---0---x---0---x---0---x---0---0---x----------------------|

Possess.................Beyond the silver...
E--2---2---x---2---x---2---x---2---2---x----------------------|
B--2---2---x---2---x---2---x---2---2---x----------------------|
G--2---2---x---2---x---2---x---2---2---x----------------------|
D--4---4---x---4---x---4---x---4---4---x----------------------|
A--4---4---x---4---x---4---x---4---4---x----------------------|
E--2---2---x---2---x---2---x---2---2---x----------------------|

Moon........
E--2---2---x---2---x---2---x---2---2---x----------------------|
B--3---3---x---3---x---3---x---3---3---x----------------------|
G--4---4---x---4---x---4---x---4---4---x----------------------|
D--4---4---x---4---x---4---x---4---4---x----------------------|
A--2---2---x---2---x---2---x---2---2---x----------------------|
E--x---x---x---x---x---x---x---x---x---x----------------------|

Lead Guitar-(Follows The Guys Singing)

  Maybe You Were Right
E--------------------------|
B--------------------------|
G---12-11-9-7-9*-----------|
D--------------------------|
A--------------------------|
E--------------------------|

  But Baby I was Lonely
E--------------------------|
B--------------------------|
G-11-12-11-9-7-9-9/11------|
D--------------------------|
A--------------------------|
E--------------------------|

  I Don't Wanna Fight
E--------------------------|
B--------------------------|
G---12-11-9-7-9*-----------|
D--------------------------|
A--------------------------|
E--------------------------|

  I'm Tired Of Being Sorry
E--------------------------|
B--------------------------|
G---9-9h11-11-9-11-9-7-----|
D--------------------------|
A--------------------------|
E--------------------------|


Rhythm- Goes Along With Solo

Bm----------------- Em    A--
     Maybe you were right

--------------  Bm       Em--
But baby I was lonely

---------------------  A--
     I don't want to fight

 ----------------   Bm--
I'm tired of being sorry


Solo-

E-------------------------------------------------------------|
B-------------------------------------------------------------|
G--11-11-12-11---9-7-9*---11-11-11-11h12-11---9-7-------------|
D------------------------------------------------9-*----------|
A-------------------------------------------------------------|
E-------------------------------------------------------------|

E-----7-5-3-2-------------------------------------------------|
B---8-8-7-5-3----------5--------------------------------------|
G------------------6h7---7-6h7-6*-----------------------------|
D-------------------------------------------------------------|
A-------------------------------------------------------------|
E-------------------------------------------------------------|

 Rhythm-
...Nuys...........With all the vampires and their
E--0---0---x---0---x---0---x---0---0---x----------------------|
B--0---0---x---0---x---0---x---0---0---x----------------------|
G--0---0---x---0---x---0---x---0---0---x----------------------|
D--2---2---x---2---x---2---x---2---2---x----------------------|
A--2---2---x---2---x---2---x---2---2---x----------------------|
E--0---0---x---0---x---0---x---0---0---x----------------------|


...Brides..............We're all bloodless and
E--2---2---x---2---x---2---x---2---2---x----------------------|
B--3---3---x---3---x---3---x---3---3---x----------------------|
G--4---4---x---4---x---4---x---4---4---x----------------------|
D--4---4---x---4---x---4---x---4---4---x----------------------|
A--2---2---x---2---x---2---x---2---2---x----------------------|
E--x---x---x---x---x---x---x---x---x---x----------------------|

...Blind
E--0---0---x---0---x---0---x---0---0---x----------------------|
B--0---0---x---0---x---0---x---0---0---x----------------------|
G--0---0---x---0---x---0---x---0---0---x----------------------|
D--2---2---x---2---x---2---x---2---2---x----------------------|
A--2---2---x---2---x---2---x---2---2---x----------------------|
E--0---0---x---0---x---0---x---0---0---x----------------------|
...Life.................Beyond the silver
E--2---2---x---2---x---2---x---2---2---x----------------------|
B--2---2---x---2---x---2---x---2---2---x----------------------|
G--2---2---x---2---x---2---x---2---2---x----------------------|
D--4---4---x---4---x---4---x---4---4---x----------------------|
A--4---4---x---4---x---4---x---4---4---x----------------------|
E--2---2---x---2---x---2---x---2---2---x----------------------|

...Moon
E--2---2---x---2---x---2---x---2---2---x----------------------|
B--3---3---x---3---x---3---x---3---3---x----------------------|
G--4---4---x---4---x---4---x---4---4---x----------------------|
D--4---4---x---4---x---4---x---4---4---x----------------------|
A--2---2---x---2---x---2---x---2---2---x----------------------|
E--x---x---x---x---x---x---x---x---x---x----------------------|

Rhythm-

 Bm----------------- Em    A--
     Maybe you were right

--------------  Bm       Em--
But baby I was lonely

---------------------  A--
     I don't want to fight

 ----------------   Bm--
I'm tired of being sorry

-------------------   Em--
I'm standing in the street

 ------------  Bm--
Crying out for you

----------  Em--
No one sees me

-------------   Bm
But the silver moon


Interlude
Em   A   Bm  Em  A  Bm

Bm
So far away  so outer space

Em
I've trashed myself  I've lost my way

F#m
I've got to get to you

I've got to get to you


Chorus

Bm                Em    A
Maybe you were right

                 Bm       Em
But baby I was lonely

Em                       A
I don't want to fight

A                   Bm
I'm tired of being sorry

                      Em
I'm standing in the street

                Bm
Crying out for you

            Em
No one sees me

                Bm
But the silver moon


Lead Guitar-Along With Rhythm-Goes To The Dudes Voice

Maybe You Were Right
E--------------------------|
B--------------------------|
G---12-11-9-7-9*-----------|
D--------------------------|
A--------------------------|
E--------------------------|

  But Baby I was Lonely
E--------------------------|
B--------------------------|
G-11-12-11-9-7-9-9/11------|
D--------------------------|
A--------------------------|
E--------------------------|

  I Don't Wanna Fight
E--------------------------|
B--------------------------|
G---12-11-9-7-9*-----------|
D--------------------------|
A--------------------------|
E--------------------------|

  I'm Tired Of Being Sorry
E--------------------------|
B--------------------------|
G---9-9h11-11-9-11-9-7-----|
D--------------------------|
A--------------------------|
E--------------------------|

 I'm standing in the street
E--------------------------|
B--------------------------|
G-11-12-12-11-12-11--------|
D--------------------------|
A--------------------------|
E--------------------------|

  Crying out for you
E--------------------------|
B--------------------------|
G-11-12/14-12-12-11-11-----|
D--------------------------|
A--------------------------|
E--------------------------|


  No one sees me
E--------------------------|
B--------------------------|
G-12-11-9-9----------------|
D--------------------------|
A--------------------------|
E--------------------------|


 But the silver moon
E--------------------------|
B--------------------------|
G--------------------------|
D-9-11-12-11-9*------------|
A--------------------------|
E--------------------------|





Comments


Popular Ringside tabs & chords
Criminal Chords
Struggle Chords
Tired Of Being Sorry Chords
Tired Of Being Sorry Good Chords
Raining Next Door Tabs
Tired Of Being Sorry 1 Tabs
Criminal Ukulele
Struggle Ukulele
Tired Of Being Sorry Ukulele
Tired Of Being Sorry Good Ukulele


Song lyrics



↑ Back to top | Tablatures and chords are parodies/interpretations of the original songs. You may use it for private study, scholarship, research or language learning purposes only
© 2014 AZChords.com Contact us | Privacy policy | DMCA | Add/correct tabs | Request tabs | Top 50 tabs