» » »

Reveille, Look At Me Now Tabs (ver.2)

Artists:  A B C D E F G H I J K L M N O P Q R S T U V W X Y Z # 

Look At Me Now Tabs (ver.2)

Reveille Tabs
 Rating:
4/5 (4 votes)
Look At Me Now lessons Tabs too difficult? Try these video lessons and learn fast
                Tuning (Db,Ab,Db,Gb,Bb,Eb)

<>   = harmonic
p.m. = palm mute
h    = hammer on
p    = pull off
\    = slide


intro/verse:
-----------0h3-------0h3------0h3------------|--------------------------------
------0h3-------0h3-------0h3----------------|--------------------------------
---------------------------------------------|-6-6-6-6-6-10-10-10-10-10-------
-0-0-----------------------------------------|-x-x-x-x-x--x--x--x--x--x-------
-0-0-----------------------------------------|-4-4-4-4-4--8--8--8--8--8-------
-0-0-----------------------------------------|--------------------------------
                                                                              


chorus:
----------------------------|-------------------------------------------------
----------------------------|-------------------------------------------------
----------------------------|-------------------------------------------------
-0--0h8p7-0h8p7-0h8p7-0h8p7-|-4--2--------------------------------------------
-0--0h8p7-0h8p7-0h8p7-0h8p7-|-4--2--------------------------------------------
-0--0h8p7-0h8p7-0h8p7-0h8p7-|-4--2--------------------------------------------
                                                                              


2:25
-6-0-0--0-0-0--0-5\6---6-0-0--0-0-0--0-1--------------------------------------
-6-0-0--0-0-0--0-5\6---6-0-0--0-0-0--0-1--------------------------------------
-6-0-0--0-0-0--0-5\6---6-0-0--0-0-0--0-1--------------------------------------
            
Submit corrections

comments powered by Disqus
↑ Back to top | Reveille Tabs for Look At Me Now. Lyrics for acoustic guitar and electric guitar. Tablatures and chords are parodies/interpretations of the original songs. You may use it for private study, scholarship, research or language learning purposes only