>
 >
Look At Me Now

Look At Me Now Guitar Tabs

Reveille - Look At Me Now chords, tabs, tablatures, lyrics

Guitar lessons | Add/correct | Request | Top 50 tabs Artists:  A B C D E F G H I J K L M N O P Q R S T U V W X Y Z 0-9

Look At Me Now Guitar Tabs – Reveille

CD, Sheet music, Poster

Do you like Look At Me Now? Share with your friends now
TabsTabs v2

Tuning: Db Ab Db Gb Bb Eb

Another great Reveille song. This one is fairly difficult to get the timing
right, but it sounds great once you get the hang of it. Once again I
couldn't find any decent tabs of this song, so this is how I play it.
It sounds 100% to me at least. Good luck friends!


INTRO

Eb|--------------------------------|
Bb|--------------------------------|
Gb|-----------0h2-----0h2-----0h2--|
Db|--0-0-0h3-----0h3-----0h3------| x3
Ab|--0-0---------------------------|
Db|--0-0---------------------------|

Eb|------------------|
Bb|------------------|
Gb|------------------|
Db|------------------| x1
Ab|--4-4-4/8-8-8888--|
Db|------------------|

Eb|--------------------------------|
Bb|--------------------------------|
Gb|-----------0h2-----0h2-----0h2--|
Db|--0-0-0h3-----0h3-----0h3------| x3
Ab|--0-0---------------------------|
Db|--0-0---------------------------|

Eb|------------------|
Bb|------------------|
Gb|------------------|
Db|------------------| x1
Ab|--4-4-4/8-8-8888--|
Db|------------------|


VERSE ONE

Eb|--------------------------------|
Bb|--------------------------------|
Gb|-----------0h2-----0h2-----0h2--|
Db|--0-0-0h3-----0h3-----0h3------| x3
Ab|--0-0---------------------------|
Db|--0-0---------------------------|

Eb|------------------|
Bb|------------------|
Gb|------------------|
Db|------------------| x1
Ab|--4-4-4/8-8-8888--|
Db|------------------|

Eb|--------------------------------|
Bb|--------------------------------|
Gb|-----------0h2-----0h2-----0h2--|
Db|--0-0-0h3-----0h3-----0h3------| x3
Ab|--0-0---------------------------|
Db|--0-0---------------------------|

Eb|-------|
Bb|-------|
Gb|-------|
Db|--0-0--| x1
Ab|--0-0--|
Db|--0-0--|


CHORUS

Eb|-----------------------------------------------------------|
Bb|-----------------------------------------------------------|
Gb|-----------------------------------------------------------|
Db|--0-0-0h8p7-0h8p7-0h5h7-0h5h7-0-0-0h8p7-0h8p7-0h3h5-0h3h5--|
Ab|--0-0-0h8p7-0h8p7-0h5h7-0h5h7-0-0-0h8p7-0h8p7-0h3h5-0h3h5--|
Db|--0-0-0h8p7-0h8p7-0h5h7-0h5h7-0-0-0h8p7-0h8p7-0h3h5-0h3h5--|

Eb|-----------------------------------------------------------|
Bb|-----------------------------------------------------------|
Gb|-----------------------------------------------------------|
Db|--0-0-0h8p7-0h8p7-0h5h7-0h5h7-33333-3-11111-7--------------| x2
Ab|--0-0-0h8p7-0h8p7-0h5h7-0h5h7-33333-3-11111-7--------------|
Db|--0-0-0h8p7-0h8p7-0h5h7-0h5h7-33333-3-11111-7--------------|


VERSE TWO

Eb|--------------------------------|
Bb|--------------------------------|
Gb|-----------0h2-----0h2-----0h2--|
Db|--0-0-0h3-----0h3-----0h3------| x5
Ab|--0-0---------------------------|
Db|--0-0---------------------------|

Eb|------------------|
Bb|------------------|
Gb|------------------|
Db|------------------| x1
Ab|--4-4-4/8-8-8888--|
Db|------------------|

Eb|--------------------------------|
Bb|--------------------------------|
Gb|-----------0h2-----0h2-----0h2--|
Db|--0-0-0h3-----0h3-----0h3------| x3
Ab|--0-0---------------------------|
Db|--0-0---------------------------|

Eb|-------|
Bb|-------|
Gb|-------|
Db|--0-0--| x1
Ab|--0-0--|
Db|--0-0--|


CHORUS

Eb|-----------------------------------------------------------|
Bb|-----------------------------------------------------------|
Gb|-----------------------------------------------------------|
Db|--0-0-0h8p7-0h8p7-0h5h7-0h5h7-0-0-0h8p7-0h8p7-0h3h5-0h3h5--|
Ab|--0-0-0h8p7-0h8p7-0h5h7-0h5h7-0-0-0h8p7-0h8p7-0h3h5-0h3h5--|
Db|--0-0-0h8p7-0h8p7-0h5h7-0h5h7-0-0-0h8p7-0h8p7-0h3h5-0h3h5--|

Eb|-----------------------------------------------------------|
Bb|-----------------------------------------------------------|
Gb|-----------------------------------------------------------|
Db|--0-0-0h8p7-0h8p7-0h5h7-0h5h7-33333-3-11111-7--------------| x2
Ab|--0-0-0h8p7-0h8p7-0h5h7-0h5h7-33333-3-11111-7--------------|
Db|--0-0-0h8p7-0h8p7-0h5h7-0h5h7-33333-3-11111-7--------------|


INTERLUDE

Eb|-----------------------------------------------------------|
Bb|-----------------------------------------------------------|
Gb|-----------------------------------------------------------|
Db|--0--------------------------------------------------------| x1
Ab|--0--------------------------------------------------------|
Db|--0--------------------------------------------------------|


BREAKDOWN

Eb|------------------------------------------|
Bb|------------------------------------------|
Gb|------------------------------------------|
Db|--1--/6-0-0--000-0h2h3-0h6-0-0--000--1----| x1
Ab|--1--/6-0-0--000-0h2h3-0h6-0-0--000--1----|
Db|--1--/6-0-0--000-0h2h3-0h6-0-0--000--1----|

Eb|--------------------------------------|
Bb|--------------------------------------|
Gb|--------------------------------------|
Db|--6-0-0--000-0h2h3-0h6-0-0--000--1----| x2
Ab|--6-0-0--000-0h2h3-0h6-0-0--000--1----|
Db|--6-0-0--000-0h2h3-0h6-0-0--000--1----|

Eb|---------------------------------------|
Bb|---------------------------------------|
Gb|---------------------------------------|
Db|--6-0-0--000-0h2h3-0h6-0-0--000--1-11--| x1
Ab|--6-0-0--000-0h2h3-0h6-0-0--000--1-11--|
Db|--6-0-0--000-0h2h3-0h6-0-0--000--1-11--|


FILL

Eb|--------------------------------|
Bb|--------------------------------|
Gb|-----------0h2-----0h2-----0h2--|
Db|--0-0-0h3-----0h3-----0h3------| x3
Ab|--0-0---------------------------|
Db|--0-0---------------------------|

Eb|-------|
Bb|-------|
Gb|-------|
Db|--0----| x1
Ab|--0----|
Db|--0----|


CHORUS

Eb|-----------------------------------------------------------|
Bb|-----------------------------------------------------------|
Gb|-----------------------------------------------------------|
Db|--0-0-0h8p7-0h8p7-0h5h7-0h5h7-0-0-0h8p7-0h8p7-0h3h5-0h3h5--|
Ab|--0-0-0h8p7-0h8p7-0h5h7-0h5h7-0-0-0h8p7-0h8p7-0h3h5-0h3h5--|
Db|--0-0-0h8p7-0h8p7-0h5h7-0h5h7-0-0-0h8p7-0h8p7-0h3h5-0h3h5--|

Eb|-----------------------------------------------------------|
Bb|-----------------------------------------------------------|
Gb|-----------------------------------------------------------|
Db|--0-0-0h8p7-0h8p7-0h5h7-0h5h7-33333-3-11111-7--------------| x2
Ab|--0-0-0h8p7-0h8p7-0h5h7-0h5h7-33333-3-11111-7--------------|
Db|--0-0-0h8p7-0h8p7-0h5h7-0h5h7-33333-3-11111-7--------------|


OUTRO

Eb|-------|
Bb|-------|
Gb|-------|
Db|--0-0--| x1
Ab|--0-0--|
Db|--0-0--|


If you have any questions or queries, etc. regarding this or any of my

Thanks folks.





Comments


Popular Reveille tabs & chords
Inside Out Bass Tabs
Perfect World 1 Bass Tabs
Pheonix Bass Tabs
Catarax Tabs
Inside Out Tabs
Inside Out (Intro) Tabs
Judas Tabs
Permanent Tabs
Permanent 1 Tabs
What You Got 1 Tabs


Song lyrics



↑ Back to top | Tablatures and chords are parodies/interpretations of the original songs. You may use it for private study, scholarship, research or language learning purposes only
© 2014 AZChords.com Contact us | Privacy policy | DMCA | Add/correct tabs | Request tabs | Top 50 tabs