» » »

Reveille, Inside Out Tabs (ver.3)

Artists:  A B C D E F G H I J K L M N O P Q R S T U V W X Y Z # 

Inside Out Tabs (ver.3)

Reveille Tabs
Rating:
0/5 (0 votes)
Inside Out lessons Tabs too difficult? Try these video lessons and learn fast
                
Tuning: Db Ab Db Gb Bb Eb

I couldn't find any decent tabs for this song at all, so I decided to write
my own down. It is played with 2 guitars so grab a buddy and have some fun!
This is how I play it and it sounds 100% to me at least.
I've tried to keep Guitars 1&2 in correct timing with each other.

NOTE: Guitar 1 uses a tremolo guitar effect during much of the song (INTRO,
VERSE and BRIDGE in particular). It sounds great if you have an FX pedal,
but if you are skilled at tremolo picking then give it a try.
Otherwise just play it open.


==================================[INTRO]===================================

Guitar 1
Eb|-------------------------------------------------|
Bb|-------------------------------------------------|
Gb|-------------------------------------------------|
Db|--4--7-9-7-9--3--7-9-7-9-7--4--7-9-7-9---3--9-7--|
Ab|-------------------------------------------------|
Db|-------------------------------------------------|

Eb|-------------------------------------------------|
Bb|-------------------------------------------------|
Gb|-------------------------------------------------|
Db|--4--7-9-7-9--3--7-9-7-9-7--4--7-9-7-9---3--7-5--|
Ab|-------------------------------------------------|
Db|-------------------------------------------------|

Guitar 2 (play when Guitar 1 plays the second time, fading in each note)
Eb|-------------------------------------------------|
Bb|--14----------13------------14-----------13------|
Gb|-------------------------------------------------|
Db|-------------------------------------------------|
Ab|-------------------------------------------------|
Db|-------------------------------------------------|


==================================[CHORUS]==================================

Guitars 1&2
Eb|---------------------------------------------------------------------|
Bb|---------------------------------------------------------------------|
Gb|---------------------------------------------------------------------|
Db|--44444--7-9-7-9---33333--7-9-7-9-7--44444--7-9-7-9--33333333--9-7---|
Ab|--44444--7-9-7-9---33333--7-9-7-9-7--44444--7-9-7-9--33333333--9-7---|
Db|--44444--7-9-7-9---33333--7-9-7-9-7--44444--7-9-7-9--33333333--9-7---|

Eb|---------------------------------------------------------------------|
Bb|---------------------------------------------------------------------|
Gb|---------------------------------------------------------------------|
Db|--44444--7-9-7-9---33333--7-9-7-9-7--44444--7-9-7-9--33333333--7-5---|
Ab|--44444--7-9-7-9---33333--7-9-7-9-7--44444--7-9-7-9--33333333--7-5---|
Db|--44444--7-9-7-9---33333--7-9-7-9-7--44444--7-9-7-9--33333333--7-5---|


================================[VERSE ONE]=================================

Guitar 1
Eb|-------------------------------------------------|
Bb|-------------------------------------------------|
Gb|-------------------------------------------------|
Db|--4--7-9-7-9--3--7-9-7-9-7--4--7-9-7-9---3--9-7--|
Ab|-------------------------------------------------|
Db|-------------------------------------------------|

Eb|-------------------------------------------------|
Bb|-------------------------------------------------|
Gb|-------------------------------------------------|
Db|--4--7-9-7-9--3--7-9-7-9-7--4--7-9-7-9---3--7-5--|
Ab|-------------------------------------------------|
Db|-------------------------------------------------|

Guitar 2 (palm muted)
Eb|-------------------------------------------------|
Bb|-------------------------------------------------|
Gb|-------------------------------------------------|
Db|-------------------------------------------------| x2
Ab|-------------------------------------------------|
Db|--44444------433333---------44444-------433333---|


================================[BRIDGE ONE]================================

Guitar 1 (each note is picked several times)
Eb|--------------------------------------------------------------|
Bb|--------------------------------------------------------------|
Gb|--------------------------------------------------------------|
Db|--4-----------3-------------4--------------3------------------|
Ab|--------------------------------------------------------------|
Db|--------------------------------------------------------------|

Guitar 2
Eb|--14----------17----------------------------------------------|
Bb|-------------------14-------10-------------15---14---15-------|
Gb|--------------------------------------------------------------|
Db|--------------------------------------------------------------|
Ab|--------------------------------------------------------------|
Db|--------------------------------------------------------------|


==================================[CHORUS]==================================

Guitars 1&2
Eb|---------------------------------------------------------------------|
Bb|---------------------------------------------------------------------|
Gb|---------------------------------------------------------------------|
Db|--44444--7-9-7-9---33333--7-9-7-9-7--44444--7-9-7-9--33333333--9-7---|
Ab|--44444--7-9-7-9---33333--7-9-7-9-7--44444--7-9-7-9--33333333--9-7---|
Db|--44444--7-9-7-9---33333--7-9-7-9-7--44444--7-9-7-9--33333333--9-7---|

Eb|---------------------------------------------------------------------|
Bb|---------------------------------------------------------------------|
Gb|---------------------------------------------------------------------|
Db|--44444--7-9-7-9---33333--7-9-7-9-7--44444--7-9-7-9--33333333--7-5---|
Ab|--44444--7-9-7-9---33333--7-9-7-9-7--44444--7-9-7-9--33333333--7-5---|
Db|--44444--7-9-7-9---33333--7-9-7-9-7--44444--7-9-7-9--33333333--7-5---|


================================[VERSE TWO]=================================

Guitar 1
Eb|-------------------------------------------------|
Bb|-------------------------------------------------|
Gb|-------------------------------------------------|
Db|--4--7-9-7-9--3--7-9-7-9-7--4--7-9-7-9---3--9-7--|
Ab|-------------------------------------------------|
Db|-------------------------------------------------|

Eb|-------------------------------------------------|
Bb|-------------------------------------------------|
Gb|-------------------------------------------------|
Db|--4--7-9-7-9--3--7-9-7-9-7--4--7-9-7-9---3--7-5--|
Ab|-------------------------------------------------|
Db|-------------------------------------------------|

Guitar 2 (palm muted)
Eb|-------------------------------------------------|
Bb|-------------------------------------------------|
Gb|-------------------------------------------------|
Db|-------------------------------------------------| x2
Ab|-------------------------------------------------|
Db|--44444------433333---------44444-------433333---|


================================[BRIDGE TWO]================================

Guitar 1 (each note is picked several times)
Eb|--------------------------------------------------------------|
Bb|--------------------------------------------------------------|
Gb|--------------------------------------------------------------|
Db|--4-----------3-------------4--------------3------------------| x2
Ab|--------------------------------------------------------------|
Db|--------------------------------------------------------------|

Guitar 2
Eb|--14----------17----------------------------------------------|
Bb|-------------------14-------10-------------15---14------------|
Gb|--------------------------------------------------------------|
Db|--------------------------------------------------------------|
Ab|--------------------------------------------------------------|
Db|--------------------------------------------------------------|

Eb|--14----------17----------------------------------------------|
Bb|-------------------14-------10-------------15---14---15-------|
Gb|--------------------------------------------------------------|
Db|--------------------------------------------------------------|
Ab|--------------------------------------------------------------|
Db|--------------------------------------------------------------|


==================================[CHORUS]==================================

Guitars 1&2
Eb|---------------------------------------------------------------------|
Bb|---------------------------------------------------------------------|
Gb|---------------------------------------------------------------------|
Db|--44444--7-9-7-9---33333--7-9-7-9-7--44444--7-9-7-9--33333333--9-7---|
Ab|--44444--7-9-7-9---33333--7-9-7-9-7--44444--7-9-7-9--33333333--9-7---|
Db|--44444--7-9-7-9---33333--7-9-7-9-7--44444--7-9-7-9--33333333--9-7---|

Eb|---------------------------------------------------------------------|
Bb|---------------------------------------------------------------------|
Gb|---------------------------------------------------------------------|
Db|--44444--7-9-7-9---33333--7-9-7-9-7--44444--7-9-7-9--33333333--7-5---|
Ab|--44444--7-9-7-9---33333--7-9-7-9-7--44444--7-9-7-9--33333333--7-5---|
Db|--44444--7-9-7-9---33333--7-9-7-9-7--44444--7-9-7-9--33333333--7-5---|


================================[BREAKDOWN]=================================

Guitar 1
Eb|--------------------------------------------------------------|
Bb|--------------------------------------------------------------|
Gb|--------------------------------------------------------------|
Db|--0h6-6-0-0--0h6-6-0-0--0h6-6-0-0--0h3-3-3-3-2-1-0------------| x2
Ab|--0h6-6-0-0--0h6-6-0-0--0h6-6-0-0--0h3-3-3-3-2-1-0------------|
Db|--0h6-6-0-0--0h6-6-0-0--0h6-6-0-0--0h3-3-3-3-2-1-0------------|

Guitar 2 (play when Guitar 1 repeats the second time)
Eb|--------------------------------------------------------------|
Bb|--------------------------------------------------------------|
Gb|--------------------------------------------------------------|
Db|--------0-0--------0-0--------0-0--0h3-3-3-3-2-1-0------------|
Ab|--------0-0--------0-0--------0-0--0h3-3-3-3-2-1-0------------|
Db|--------0-0--------0-0--------0-0--0h3-3-3-3-2-1-0------------|

Guitars 1&2
Eb|--------------------------------------------------------------|
Bb|--------------------------------------------------------------|
Gb|--------------------------------------------------------------|
Db|--0h6-6-0-0--0h6-6-0-0--0h6-6-0-0--0h3-3-3-3-2-1-0------------| x6
Ab|--0h6-6-0-0--0h6-6-0-0--0h6-6-0-0--0h3-3-3-3-2-1-0------------|
Db|--0h6-6-0-0--0h6-6-0-0--0h6-6-0-0--0h3-3-3-3-2-1-0------------|


==================================[CHORUS]==================================

Guitars 1&2
Eb|---------------------------------------------------------------------|
Bb|---------------------------------------------------------------------|
Gb|---------------------------------------------------------------------|
Db|--44444--7-9-7-9---33333--7-9-7-9-7--44444--7-9-7-9--33333333--9-7---|
Ab|--44444--7-9-7-9---33333--7-9-7-9-7--44444--7-9-7-9--33333333--9-7---|
Db|--44444--7-9-7-9---33333--7-9-7-9-7--44444--7-9-7-9--33333333--9-7---|

Eb|---------------------------------------------------------------------|
Bb|---------------------------------------------------------------------|
Gb|---------------------------------------------------------------------|
Db|--44444--7-9-7-9---33333--7-9-7-9-7--44444--7-9-7-9--33333333--7-5---|
Ab|--44444--7-9-7-9---33333--7-9-7-9-7--44444--7-9-7-9--33333333--7-5---|
Db|--44444--7-9-7-9---33333--7-9-7-9-7--44444--7-9-7-9--33333333--7-5---|


==================================[OUTRO]===================================

Guitar 1&2 (let it ring)
Eb|--------------------------------------------------------------|
Bb|--------------------------------------------------------------|
Gb|--------------------------------------------------------------|
Db|--4-----------------------------------------------------------|
Ab|--4-----------------------------------------------------------|
Db|--4-----------------------------------------------------------|


============================================================================

There you have it. If you have any questions or anything regarding this tab

Thanks folks.
            
Submit corrections

comments powered by Disqus
↑ Back to top | Reveille Tabs for Inside Out. Lyrics for acoustic guitar and electric guitar. Tablatures and chords are parodies/interpretations of the original songs. You may use it for private study, scholarship, research or language learning purposes only