>
 >
Inside Out

Inside Out Guitar Tabs

Reveille - Inside Out chords, tabs, tablatures, lyrics

Guitar lessons | Add/correct | Request | Top 50 tabs Artists:  A B C D E F G H I J K L M N O P Q R S T U V W X Y Z 0-9

Inside Out Guitar Tabs – Reveille

CD, Sheet music, Poster

Do you like Inside Out? Share with your friends now
Bass TabsTabsTabs v2
Tuning: Drop D


e-------------------------------------------------------|
B-------------------------------------------------------|
G--0-3-5-3-5---3-5-3-5-3-0-3-5-3-5---5-3----------------|
D------------4---------------------4--------------------|
a-------------------------------------------------------|
D-------------------------------------------------------|

e-------------------------------------------------------|
B-------------------------------------------------------|
G--0-3-5-3-5---3-5-3-5-3-0-3-5-3-5---5-3----------------|
D------------4---------------------4--------------------|
a-------------------------------------------------------|
D-------------------------------------------------------|

e-----------------------------------------------------------------------------------|
B-----------------------------------------------------------------------------------|
G-----------------------------------------------------------------------------------|
D--3-3--3-3-3-6-6-6-8-6-2--2-2-2-6-6-6-8-6-3--3-3--3-3-3-6-6-6-8-6-2--2-2-2-2-x-8-6-|
a--3-3--3-3-3-6-6-6-8-6-2--2-2-2-6-6-6-8-6-3--3-3--3-3-3-6-6-6-8-6-2--2-2-2-2-x-8-6-|
D--3-3--3-3-3-6-6-6-8-6-2--2-2-2-6-6-6-8-6-3--3-3--3-3-3-6-6-6-8-6-2--2-2-2-2-x-8-6-|


e-----------------------------------------------------------------------------------|
B-----------------------------------------------------------------------------------|
G-----------------------------------------------------------------------------------|
D--3-3--3-3-3-6-6-6-8-6-2--2-2-2-6-6-6-8-6-3--3-3--3-3-3-6-6-6-8-6-2--2-2-2-2-x-8-6-|
a--3-3--3-3-3-6-6-6-8-6-2--2-2-2-6-6-6-8-6-3--3-3--3-3-3-6-6-6-8-6-2--2-2-2-2-x-8-6-|
D--3-3--3-3-3-6-6-6-8-6-2--2-2-2-6-6-6-8-6-3--3-3--3-3-3-6-6-6-8-6-2--2-2-2-2-x-8-6-|
 Radio for all you good maaan... haha its all inside out precious ignition

    ::Verse 1::
e-------------------------------------------------------|
B-------------------------------------------------------|
G--0-3-5-3-5---3-5-3-5-3-0-3-5-3-5---5-3----------------|
D------------4---------------------4--------------------|
a-------------------------------------------------------|
D-------------------------------------------------------|

Tell me what I'm supposed to feel because I can't feel this
Sick and tired and it's all the same-
Same shit, different day, all day, every day
Wish you were perfect?
Well welcome to your fifteen minutes of fame

e-------------------------------------------------------|
B-------------------------------------------------------|
G--0-3-5-3-5---3-5-3-5-3-0-3-5-3-5---5-3----------------|
D------------4---------------------4--------------------|
a-------------------------------------------------------|
D-------------------------------------------------------|

Come get it well it's hot- you want it, we got it, come get it now
Can you feel me now?
Tell me how I'm supposed to feel for you when all you do is hold me down?
Told me I'm nothing, well tell me what your thinking now
So back off -

    ::Pre-Chorus::
   ~~   b1/4
e-8----11----6--6/7-\3--11-8----------------------------|
B-------------------------------------------------------|
G-------------------------------------------------------|
D-------------------------------------------------------|
a-------------------------------------------------------|
D-------------------------------------------------------|
Never more alone than all alone
I don't know where the hell I am
But they say there's a price to pay for asking questions
So I'm guessing and ending up where I began

    ::Chorus::

e-----------------------------------------------------------------------------------|
B-----------------------------------------------------------------------------------|
G-----------------------------------------------------------------------------------|
D--3-3--3-3-3-6-6-6-8-6-2--2-2-2-6-6-6-8-6-3--3-3--3-3-3-6-6-6-8-6-2--2-2-2-2-x-8-6-|
a--3-3--3-3-3-6-6-6-8-6-2--2-2-2-6-6-6-8-6-3--3-3--3-3-3-6-6-6-8-6-2--2-2-2-2-x-8-6-|
D--3-3--3-3-3-6-6-6-8-6-2--2-2-2-6-6-6-8-6-3--3-3--3-3-3-6-6-6-8-6-2--2-2-2-2-x-8-6-|
I never got a second look before now
I was the one that you'd ignore
Now turn yourself inside out
Come on-
Can you feel me now?

e-----------------------------------------------------------------------------------|
B-----------------------------------------------------------------------------------|
G-----------------------------------------------------------------------------------|
D--3-3--3-3-3-6-6-6-8-6-2--2-2-2-6-6-6-8-6-3--3-3--3-3-3-6-6-6-8-6-2--2-2-2-2-x-8-6-|
a--3-3--3-3-3-6-6-6-8-6-2--2-2-2-6-6-6-8-6-3--3-3--3-3-3-6-6-6-8-6-2--2-2-2-2-x-8-6-|
D--3-3--3-3-3-6-6-6-8-6-2--2-2-2-6-6-6-8-6-3--3-3--3-3-3-6-6-6-8-6-2--2-2-2-2-x-8-6-|
I never got a second look before now
I was the one that you'd ignore
Now turn yourself inside out
Come on-
Can you feel me?

    ::Verse 2::

e-------------------------------------------------------|
B-------------------------------------------------------|
G--0-3-5-3-5---3-5-3-5-3-0-3-5-3-5---5-3----------------|
D------------4---------------------4--------------------|
a-------------------------------------------------------|
D-------------------------------------------------------|
Tell me what I'm supposed to feel because I can't feel shit
Hollowed out and you wonder why?
"too much, not enough, slow down, pick it up"
Genuine adrenaline keeping me high, so high

e-------------------------------------------------------|
B-------------------------------------------------------|
G--0-3-5-3-5---3-5-3-5-3-0-3-5-3-5---5-3----------------|
D------------4---------------------4--------------------|
a-------------------------------------------------------|
D-------------------------------------------------------|
So walk your walk, talk your talk,
But as far as I can see-
On the inside out your bout as ugly as me
'cept now I'm fit to knock you down
Told me I'm nothing?
Tell me what your thinking now
So back off-

    ::Pre-Chorus::

   ~~   b1/4
e-8----11----6--6/7-\3--11-8----------------------------|
B-------------------------------------------------------|
G-------------------------------------------------------|
D-------------------------------------------------------|
a-------------------------------------------------------|
D-------------------------------------------------------|

Tell me what I'm supposed to feel for you
Turn yourself inside out,
Take a closer look inside-
I think that you deserve yourself

    ::Chorus::

e-----------------------------------------------------------------------------------|
B-----------------------------------------------------------------------------------|
G-----------------------------------------------------------------------------------|
D--3-3--3-3-3-6-6-6-8-6-2--2-2-2-6-6-6-8-6-3--3-3--3-3-3-6-6-6-8-6-2--2-2-2-2-x-8-6-|
a--3-3--3-3-3-6-6-6-8-6-2--2-2-2-6-6-6-8-6-3--3-3--3-3-3-6-6-6-8-6-2--2-2-2-2-x-8-6-|
D--3-3--3-3-3-6-6-6-8-6-2--2-2-2-6-6-6-8-6-3--3-3--3-3-3-6-6-6-8-6-2--2-2-2-2-x-8-6-|
I never got a second look before now
I was the one that you'd ignore
Now turn yourself inside out
Come on-
Can you feel me now?

    ::Bridge::

    h        h        h                        h        h        h
e--------------------------------------------------------------------------------------|
B--------------------------------------------------------------------------------------|
G--------------------------------------------------------------------------------------|
D--3-5--0-0-3-5--0-0-3-5--0-0-3-0-5-4-3-2-2---3-5--0-0-3-5--0-0-3-5--0-0-3-0-5-4-3-2-2-|
a--3-5--0-0-3-5--0-0-3-5--0-0-3-0-5-4-3-2-2---3-5--0-0-3-5--0-0-3-5--0-0-3-0-5-4-3-2-2-|
D--3-5--0-0-3-5--0-0-3-5--0-0-3-0-5-4-3-2-2---3-5--0-0-3-5--0-0-3-5--0-0-3-0-5-4-3-2-2-|

Title match, main ring-
No time to rethink,
You swim or you sink-
You want it, we got it, come get it

    ::Outro-Chorus::
e-----------------------------------------------------------------------------------|
B-----------------------------------------------------------------------------------|
G-----------------------------------------------------------------------------------|
D--3-3--3-3-3-6-6-6-8-6-2--2-2-2-6-6-6-8-6-3--3-3--3-3-3-6-6-6-8-6-2--2-2-2-2-x-8-6-|
a--3-3--3-3-3-6-6-6-8-6-2--2-2-2-6-6-6-8-6-3--3-3--3-3-3-6-6-6-8-6-2--2-2-2-2-x-8-6-|
D--3-3--3-3-3-6-6-6-8-6-2--2-2-2-6-6-6-8-6-3--3-3--3-3-3-6-6-6-8-6-2--2-2-2-2-x-8-6-|
I never got a second look before now
I was the one that you'd ignore
Now turn yourself inside out
Come on-
Can you feel me now?
e-----------------------------------------------------------------------------------|
B-----------------------------------------------------------------------------------|
G-----------------------------------------------------------------------------------|
D--3-3--3-3-3-6-6-6-8-6-2--2-2-2-6-6-6-8-6-3--3-3--3-3-3-6-6-6-8-6-2--2-2-2-2-x-8-6-|
a--3-3--3-3-3-6-6-6-8-6-2--2-2-2-6-6-6-8-6-3--3-3--3-3-3-6-6-6-8-6-2--2-2-2-2-x-8-6-|
D--3-3--3-3-3-6-6-6-8-6-2--2-2-2-6-6-6-8-6-3--3-3--3-3-3-6-6-6-8-6-2--2-2-2-2-x-8-6-|
I never got a second look before now
I was the one that you'd ignore
Now turn yourself inside out
Come on-
Can you feel me now?





Comments


Popular Reveille tabs & chords
The Phoenix 1 Bass Tabs
Aftertaste Tabs
Bleed The Sky Tabs
Butterfly Tabs
Butterfly 2 Tabs
Comin Back Tabs
Inside Out 1 Tabs
Killing Me Tabs
Permanent 1 Tabs
Unborn Tabs


Song lyrics



↑ Back to top | Tablatures and chords are parodies/interpretations of the original songs. You may use it for private study, scholarship, research or language learning purposes only
© 2014 AZChords.com Contact us | Privacy policy | DMCA | Add/correct tabs | Request tabs | Top 50 tabs