» » »

R.E.M., Wake Up Bomb Bass tabs (ver.1)

Artists:  A B C D E F G H I J K L M N O P Q R S T U V W X Y Z # 

Wake Up Bomb Bass tabs (ver.1)

R.E.M. Tabs
Rating:
0/5 (0 votes)
Wake Up Bomb lessons Tabs too difficult? Try these video lessons and learn fast
                "(1)
REM's wake up bomb off hi-fi
corrections would be appreciated
each '-' represents a half beat
strings are from bottom to top eadg
dots are short (staccato)
hold out asterisk                  f#   g   a  e  f#   g   a
in the bridge, the notes are frets 11, 12, 14, 9, 11, 12, 14 respectively


verse 1                       ______________
                                 1-5    |6
   .  .  .  .  .  .  .  .  .  .         |
|  --------|--------|--------|--------  |--------|
|* 2--2--2-|0--0--0-|--------|------0- *|--------|
|* --------|--------|0--0--0-|----0--- *|--------|
|  --------|--------|--------|3--3----  |33333333|

1st chorus
                      _______________________________
                                      1 | 2
                            *           |
|  --------|--------|-------0|--------  |--------|--------|
|* --------|--------|0-0-0---|-4-3-20- *|0-0-0-0-|--------|
|* 3-----3-|3-----3-|------3-|-------- *|--------|3-3-3-3-|
|  ---33---|---33---|--------|--------  |--------|--------|

                              _____________
                                    1   | 2
|  --------|--------|--------|--------  | rrrrrrrr|
|* 2--2--2-|0--0--0-|--------|------0- *| eeeeeeee|
|* --------|--------|0--0--0-|----0--- *| ssssssss|
|  --------|--------|--------|3--3----  | tttttttt|


chorus
                     _______________________________
                                   1,2,3| 4 
                            *           |
|  --------|--------|-------0|--------  |--------|--------|
|* --------|--------|0-0-0---|-4-3-20- *|0-0-0-0-|--------|
|* 3-----3-|3-----3-|------3-|-------- *|--------|3-3-3-3-|
|  ---33---|---33---|--------|--------  |--------|--------|

verse 2                       ______________
                                 1-5    |6
   .  .  .  .  .  .  .  .  .  .         |
|  --------|--------|--------|--------  |rrrrrrrr|
|* 2--2--2-|0--0--0-|--------|------0- *|eeeeeeee|
|* --------|--------|0--0--0-|----0--- *|ssssssss|
|  --------|--------|--------|3--3----  |tttttttt|

chorus

bridge (this is a little off)

|----r---|--------|----r---|--------|----x---|x---x---|9---x---|
|2---e---|--------|----e---|--------|2-------|--------|--------|
|----s---|--------|0---s---|--------|--------|--------|--------|
|----t---|--------|----t---|--------|--------|--------|--------|


|x---x~~~| the tildas represnet a vibrato.  i think it's cool to
|--------| add a slide during the last beat of the vibrato 'a' 2
|--------| whatever.
|--------|

last verse                     ______________
                                 1,2    |3
                                        |
   .  .  .  .  .  .  .  .  .  .         |1&2&3e&a4& (represents a 16th rest)
|  --------|--------|--------|--------  |-----r- --|just touch the a then
|* 2--2--2-|0--0--0-|--------|------0- *|-----e- --|silence it almost right
|* --------|--------|0--0--0-|----0--- *|----0s- --|away
|  --------|--------|--------|3--3----  |3--3-t- --|

last chorus

chorus
                     _____________________________________________
                                   1,2,3| 4,5,6,7           |8
                            *           |       *           |
|  --------|--------|-------0|--------  |-------0|---4-2--  |--------|--------|
|* --------|--------|0-0-0---|-4-3-20- *|0-0-0---|-3------ *|0-0-0-0-|--------|
|* 3-----3-|3-----3-|------3-|-------- *|------3-|-------- *|--------|3-3-3-3-|
|  ---33---|---33---|--------|--------  |--------|--------  |--------|--------|

i'm not quite sure what this ends on.  when my group plays this song, we
end on a g chord and i end on a g (e third fret) but that is ugly when 
played with the cd.  i think it actually ends on an a. if anyone ever finds
"            
Submit corrections

comments powered by Disqus
↑ Back to top | R.E.M. Bass for Wake Up Bomb. Lyrics for acoustic guitar and electric guitar. Tablatures and chords are parodies/interpretations of the original songs. You may use it for private study, scholarship, research or language learning purposes only