» » »

R.E.M., Wake Up Bomb Bass tabs (ver.2)

Artists:  A B C D E F G H I J K L M N O P Q R S T U V W X Y Z # 

Wake Up Bomb Bass tabs (ver.2)

R.E.M. Tabs
 Rating:
4/5 (4 votes)
Wake Up Bomb lessons Tabs too difficult? Try these video lessons and learn fast
                "#

                        The Wake-Up Bomb


This is based entirely on my concert bootleg and the MTV music video awards
performance.  I cannot garauntee it's complete accuracy, but it can pass
for the real thing (maybe it even is) anyday.

Main riff (Verse and "Oh! The wake up bomb"):
     E    D    A   G    E     D    A    G (pchor)
G-|--------------------------------------|
D-|--------------------------------------|
A-|--7-7--5--5---------5-7-7--5--5-------|
E-|------------5-5--3--------------5-5--3|-5-

Chorus: ("My head's on fire, and high esteem")(a really fun-sounding
glam-rock riff)
   C  G  C    G   C  D                C G  C     G  C  D          C     F(end)
G-|---------------------------------------------------------------------|----
D-|--------------------------5-4-2--------------------------------------|----
A-|-3-----3-3-----3--5-5-5-3-------5--3-----3-3-----3--5-5-5-5-3--3-3-3-|----
E-|---3-3-----3-3-----------------------3-3-----3-3---------------------|-1-
-
"            
Submit corrections

comments powered by Disqus
↑ Back to top | R.E.M. Bass for Wake Up Bomb. Lyrics for acoustic guitar and electric guitar. Tablatures and chords are parodies/interpretations of the original songs. You may use it for private study, scholarship, research or language learning purposes only