» » »

R.E.M., Losing My Religion Bass tabs (ver.3)

Artists:  A B C D E F G H I J K L M N O P Q R S T U V W X Y Z # 

Losing My Religion Bass tabs (ver.3)

R.E.M. Tabs
 Rating:
4/5 (4 votes)
Losing My Religion lessons Tabs too difficult? Try these video lessons and learn fast
1
                                      R.E.M. – Losing My Religion

Intro: F-Am-F-Am G
|---------|--------|--------------|-----------|----------|
|---------|--------|---------5----|-----------|----------|
|-5-7-5-0-|-8---8--|-8--5--5------|-----------|----5--7--|
|---------|--------|------------3-|-5--5-7--7-|-8--------|

|---------|--------------|-----------|--------------|
|---------|---------5----|-----------|--------------|
|-8---8---|-8--5--5------|-----------|--------------|
|---------|------------3-|-5--5-0--5-|-3---3--3---3-|

Verse: Am-Em-Am-Em-Am-D-G
|-----------|-----------------|---------------|----------|
|------5h7--|----5h7----------|---------------|----------|
|----7------|-0-------0--2--3-|---------------|------2---|
|-5---------|-----------------|-0--0--2---0-0-|-0------3-|

|-----------|-----------------|---------------|----------|
|------5h7--|----5h7----------|---------------|----------|
|----7------|-0-------0--2--3-|---------------|------2---|
|-5---------|-----------------|-0--0--2---0-0-|-0------3-|

|-----------|-----------------|------------------------|
|-------5h7-|----5h7----------|-------------------9----|
|----7------|-0-------0--2--3-|-7--7--9---7-7--7-----7-|
|-5---------|-----------------|------------------------|

|-----------------------|---------------------|
|-----------------------|---------------------|
|-5--5-5--5-5--5-5------|---------------------|
|-------------------0-2-|-3--3-3--3-3--3-3--7-|

Refrain:
|-----------|-----------------|---------------|----------|
|------5h7--|----5h7----------|---------------|----------|
|----7------|-0-------0--2--3-|---------------|------2---|
|-5---------|-----------------|-0--0--2---0-0-|-0------3-|

|-----------|-----------------|---------------|----------|
|------5h7--|----5h7----------|---------------|----------|
|----7------|-0-------0--2--3-|---------------|------2---|
|-5---------|-----------------|-0--0--2---0-0-|-0------3-|

|-----------|-----------------|------------------------|
|-------5h7-|----5h7----------|-------------------9----|
|----7------|-0-------0--2--3-|-7--7--9---7-7--7-----7-|
|-5---------|-----------------|------------------------|

|-----------------------|--------------------------|
|-----------------------|--------------------------|
|-5--5-5--5-5--5-5------|------------------5-7-5-0-|
|-------------------0-2-|-3--3-3--3-3--3-3---------|

Chorus:
|-------------------------|--------------------|
|--------------------5----|--------------------|
|-8--8-8-9--8--5--5-------|--------------5--7--|
|-----------------------3-|-5--5-7--7-8--------|

|-------------------------|-------------|-----------|
|--------------------5----|-------------|-----------|
|-8--8-8-9--8--5--5-------|-------------|-----------|
|-----------------------3-|-5--5-5---5--|-3----3----|

Verse: Am-Em-Am-Em-Am-D-G
|-----------|-----------------|---------------|----------|
|------5h7--|----5h7----------|---------------|----------|
|----7------|-0-------0--2--3-|---------------|------2---|
|-5---------|-----------------|-0--0--2---0-0-|-0------3-|

|-----------|-----------------|---------------|----------|
|------5h7--|----5h7----------|---------------|----------|
|----7------|-0-------0--2--3-|---------------|------2---|
|-5---------|-----------------|-0--0--2---0-0-|-0------3-|


|-----------|-----------------|------------------------|
|-------5h7-|----5h7----------|-------------------9----|
|----7------|-0-------0--2--3-|-7--7--9---7-7--7-----7-|
|-5---------|-----------------|------------------------|

|-----------------------|---------------------|
|-----------------------|---------------------|
|-5--5-5--5-5--5-5------|---------------------|
|-------------------0-2-|-3--3-3--3-3--3-3--7-|

Refrain:
|-----------|-----------------|---------------|----------|
|------5h7--|----5h7----------|---------------|----------|
|----7------|-0-------0--2--3-|---------------|------2---|
|-5---------|-----------------|-0--0--2---0-0-|-0------3-|

|-----------|-----------------|---------------|----------|
|------5h7--|----5h7----------|---------------|----------|
|----7------|-0-------0--2--3-|---------------|------2---|
|-5---------|-----------------|-0--0--2---0-0-|-0------3-|

|-----------|-----------------|------------------------|
|-------5h7-|----5h7----------|-------------------9----|
|----7------|-0-------0--2--3-|-7--7--9---7-7--7-----7-|
|-5---------|-----------------|------------------------|

|-----------------------|--------------------------|
|-----------------------|--------------------------|
|-5--5-5--5-5--5-5------|------------------5-7-5-0-|
|-------------------0-2-|-3--3-3--3-3--3-3---------|

Chorus:
|-------------------------|--------------------|
|--------------------5----|--------------------|
|-8--8-8-9--8--5--5-------|--------------5--7--|
|-----------------------3-|-5--5-7--7-8--------|

|-------------------------|-------------|-----------|
|--------------------5----|-------------|-----------|
|-8--8-8-9--8--5--5-------|-------------|-----------|
|-----------------------3-|-5--5-5---5--|-3----3----|

Ad Lib:
|----------|----------|-----------|----------|
|----------|----------|-----------|----------|
|----------|----------|-----------|----------|
|-5--------|-3--------|-1---------|-3--------|

Bridge:
|----------|----------|---------|----------|
|----------|----------|---------|----------|
|-3--------|-5--------|-3-------|-5--------|
|----------|----------|---------|----------|

Refrain:
|-----------|-----------------|---------------|----------|
|------5h7--|----5h7----------|---------------|----------|
|----7------|-0-------0--2--3-|---------------|------2---|
|-5---------|-----------------|-0--0--2---0-0-|-0------3-|

|-----------|-----------------|---------------|----------|
|------5h7--|----5h7----------|---------------|----------|
|----7------|-0-------0--2--3-|---------------|------2---|
|-5---------|-----------------|-0--0--2---0-0-|-0------3-|

|-----------|-----------------|------------------------|
|-------5h7-|----5h7----------|-------------------9----|
|----7------|-0-------0--2--3-|-7--7--9---7-7--7-----7-|
|-5---------|-----------------|------------------------|

|-----------------------|--------------------------|
|-----------------------|--------------------------|
|-5--5-5--5-5--5-5------|------------------5-7-5-0-|
|-------------------0-2-|-3--3-3--3-3--3-3---------|



Chorus:
|-------------------------|--------------------|
|--------------------5----|--------------------|
|-8--8-8-9--8--5--5-------|--------------5--7--|
|-----------------------3-|-5--5-7--7-8--------|

|-------------------------|--------------------|
|--------------------5----|--------------------|
|-8--8-8-9--8--5--5-------|--------------5--7--|
|-----------------------3-|-5--5-7—-7-8--------|

|-------------------------|--------------------|
|--------------------5----|--------------------|
|-8--8-8-9--8--5--5-------|--------------5--7--|
|-----------------------3-|-5--5-7--7-8--------|

|-------------------------|-------------|--------------|----------|
|--------------------5----|-------------|--------------|----------|
|-8--8-8-9--8--5--5-------|-------------|--------------|----------|
|-----------------------3-|-5--5-5---5--|-3--3--3--3---|-5--------|
            
Submit corrections

comments powered by Disqus
↑ Back to top | R.E.M. Bass for Losing My Religion. Lyrics for acoustic guitar and electric guitar. 1 Tablatures and chords are parodies/interpretations of the original songs. You may use it for private study, scholarship, research or language learning purposes only