» » »

R.E.M., Losing My Religion Bass tabs (ver.2)

Artists:  A B C D E F G H I J K L M N O P Q R S T U V W X Y Z # 

Losing My Religion Bass tabs (ver.2)

R.E.M. Tabs
 Rating:
4/5 (4 votes)
Losing My Religion lessons Tabs too difficult? Try these video lessons and learn fast
1
                Standard Tuning

/ = slide up
h = hammer on

This is my first tab for a while now but I'm pretty much 100% about all of it.  It's 
definitely an improvement on the other version... it's in the right key for a start.
Please rate and leave comments.

INTRO
G|------------------------------------------------------------|
D|--------------------5-5-7----------------------5-5-7-77-----|
A|-5-7-5-0-8-88888-5-5------------5-7-8-88888-5-5-------------|
E|---------------------------7--8------------------------5-3--|

VERSE
G|---------------------------------------------------------|
D|---------------------------------------------------------|
A|----------------3/7-------------------------3/7----------|
E|-5-5-35-5-35-35-----1-0-00-3-5-5-35-5-35-35-----1-0-00-3-|

G|-----------------------------------------------------------|
D|-----------------------------------------------------------|
A|----------------3/7------7-6-5-55-5-5-55-5h7---------------|
E|-5-5-35-5-35-35-----1-0-8--------------------3-33-3---33-3-|

G|---------------------------------------------------------|
D|---------------------------------------------------------|
A|----------------3/7-------------------------3/7----------|
E|-5-5-35-5-35-35-----1-0-00-3-5-5-35-5-35-35-----1-0-00-3-|

G|--------------------------------------------------------|
D|--------------------------------------------------------|
A|----------------3/7------7-6-5-55-5-5-35-5/7/10-1010-10-|
E|-5-5-35-5-35-35-----1-0-8-------------------------------|

CHORUS
G|--------------------------------------------------------------|
D|----------------------5-5-7----------------------5-5-7-77-----|
A|-3-5-7-5-0-8-88888-5-5------------5-7-8-88888-5-5-------------|
E|-----------------------------7--8------------------------5-3--|

VERSE 2
G|---------------------------------------------------------|
D|---------------------------------------------------------|
A|----------------3/7-------------------------3/7----------|
E|-5-5-35-5-35-35-----1-0-00-3-5-5-35-5-35-35-----1-0-00-3-|

G|-----------------------------------------------------------|
D|-----------------------------------------------------------|
A|----------------3/7------7-6-5-55-5-5-55-5h7---------------|
E|-5-5-35-5-35-35-----1-0-8--------------------3-33-3---33-3-|

G|---------------------------------------------------------|
D|---------------------------------------------------------|
A|----------------3/7-------------------------3/7----------|
E|-5-5-35-5-35-35-----1-0-00-3-5-5-35-5-35-35-----1-0-00-3-|

G|--------------------------------------------------------|
D|--------------------------------------------------------|
A|----------------3/7------7-6-5-55-5-5-35-5/7/10-1010-10-|
E|-5-5-35-5-35-35-----1-0-8-------------------------------|

CHORUS 2
G|--------------------------------------------------------------|
D|----------------------5-5-7----------------------5-5-7-77-----|
A|-3-5-7-5-0-8-88888-5-5------------5-7-8-88888-5-5-------------|
E|-----------------------------7--8------------------------5-3--|

INTERLUDE
G|---------------------------------------------------|
D|-----------------------------------------------5-7-|
A|---------------------3r---5r---3r---5r---3-5-7-----|
E|-5r---3r---1r---3r---------------------------------|

VERSE 3
G|---------------------------------------------------------|
D|---------------------------------------------------------|
A|----------------3/7-------------------------3/7----------|
E|-5-5-35-5-35-35-----1-0-00-3-5-5-35-5-35-35-----1-0-00-3-|

G|--------------------------------------------------------|
D|--------------------------------------------------------|
A|----------------3/7------7-6-5-55-5-5-35-5/7/10-1010-10-|
E|-5-5-35-5-35-35-----1-0-8-------------------------------|

CHORUS 3
G|-------------------------------------------------------------|
D|----------------------5-5-7----------------------5-5-7-------|
A|-3-5-7-5-0-8-88888-5-5------------5-7-8-88888-5-5------------|
E|-----------------------------7--8-----------------------7--8-|

G|--------------------------------------------------------------|
D|----------------------5-5-7----------------------5-5-7-77-----|
A|-3-5-7-5-0-8-88888-5-5------------5-7-8-88888-5-5-------------|
E|-----------------------------7--8------------------------5-3--|

OUTRO
G|-------------------------------------------------------|
D|-------------------------------------------------------|
A|-------------------------------------------------------|
E|-5r-------3-5r-------3-5r-------3-5r-------3-5r--------|
            
Submit corrections

comments powered by Disqus
↑ Back to top | R.E.M. Bass for Losing My Religion. Lyrics for acoustic guitar and electric guitar. 1 Tablatures and chords are parodies/interpretations of the original songs. You may use it for private study, scholarship, research or language learning purposes only