>
 >
Driver 8 1

Driver 8 1 Guitar Tabs

R.E.M. - Driver 8 1 chords, tabs, tablatures, lyrics

Guitar lessons | Add/correct | Request | Top 50 tabs Artists:  A B C D E F G H I J K L M N O P Q R S T U V W X Y Z 0-9

Driver 8 1 Guitar Tabs – R.E.M.

CD, Sheet music, Poster

Do you like Driver 8 1? Share with your friends now
Bass TabsChordsTabsTabs v2Ukulele
R.E.M
Driver 8

e ----------------------------------------------------|
b ---------------------------0------------------------|
g ---------------------------------0---0---0---0---0--| x2
d ----------------------4/5------5---5---4---2---0-0--|
a ----------2-0--2---3--------------------------------|
e 0---0-2-3-------------------------------------------|

e ----------------|
b --------------0-|
g --0---0---0-----|
d 5---4---2---0---|
a ----------------|
e ----------------|


verse
e ---0-----0---0-0----0-0-0-0-0----3-3---3-3-3----3------3---0-|
b ---0-----0-0-0-1--1-1-----1-0----3-3---3-3-3----3------3--3--|
g ---0-------0---2--2-------2---0--0-0-----0------0-0----0--0--|
d ---2-------2---2--2-----------0--0-------0---0----0-------0--|
a -----------2---0--0-----------2-------------------0----------|
e 0-----------------------------3--------------2---------------|

e ---0------0-----0-0---0---0-----3-3----3---------3-----3----|
b ---0------0--1--1-1---1-1-0--3--3-3----3-3-------3-3---30-0-|
g ---0------0--2--2-------2----0--0-0------0-0-0---0-0-0--0-0-|
d ---2---------2--2------------0--0-0------0-0-0---0-0-0--0---|
a -------------0---------------2------------------------------|
e 0----------------------------3---------------2--------------|


Chorus
e -(0)--0-----0-0-----0------0--0--0-----0-0------0-0-------0-|
b -(7)--7-------7-(0)-3--3---7--7--7-------7---3--3-3---3-0-7-|
g -(7)--7-------7-----0--0------7--7-------7---0----0---0-0-7-|
d --0---0-------------2--0-0-------0-------0---2----0---------|
a --------------------3------------------------3----2---------|
e ------------------------------------------------------------|

e -----0-----0-0---0--0-0-------0----0----0-0---0----0-------0-|
b --7--7-------7---3--3-3---3---7-7--7------7---3----3---3---0-|
g --7--7-----------0----0---0-----7--7------7---0--0-0---0-----|
d --0--0-----------2----0-----0---0--0------0-0-0----0-----0---|
a -----------------3----2-----0-----------------2----2---------|
e -------------------------------------------------------------|

e ----------------------------------------------------------------|
b -----------------------------------------------------------(0)--|
g -----------------------------------------------------------(0)--|
d ----0-------0-------0-------0-------0-------0-------0------(0)0-|
a --2---0---0---0---0---0---0---0---2---0---0---0---0---0-2-0---0-|
e 0-------2-------3-------2-------0-------2-------3---------------|


e ---------------------------------------------------------|
b ---------------------------------------------------------|
g ---------------------------(0)---------------------------| x2
d ----0-------0-------0-------0-------0-------0-------0----|
a -(2)--0---0---0---0---0---0---0---2---0---0---0---0---0--|
e 0-------2-------3-------2-------0-------2-------3--------|

e ----------------|
b -----------(0)--|
g ------------0---|
d ----0-----0-0-0-|
a --0---0---0---0-|
e 3-------2-------|


Bridge
e ---0-0-------0------0------------3-----3-------3-3-----3-0-|
b 1--1-1-----1-1------1----------1-1-1---1-1-1---1-1-1---1-0-|
g 2--2-------2-2----2-2----------0-0-0---0-0-0---0-0-0---0---|
d 2--2---2---2---2--2---2-----2--2---0s2-2-2-2---2---0s2-2---|
a 0------0s2-----0------0--2--3--3-----------3---3-----------|
e -----------------------------------------------------------|

e 3--3--------3-3-3-3-3--3-3-0-----2----2-2-2-3-3-3-2-2-2-2-0-|
b 0--0--0-0-0-0-0-0-0-0--0-0-0-----3----3-3-3-3-3-3-3-3-3-3-0-|
g 0--0--0-0-0-0-0-0-0-0--0-0---2---2----2-2-2-2-2-2-2-2-2-2---|
d 0--0--0-0-0---0-0-0-0--0-0---0---0----0-0---0---0-0-0-0-----|
a 2-------------2---------------------------------------------|
e 3-------------3---------------------------------------------|


e 0--0----0-----0----0-------0----0----0-0---0----0--------0---|
b 7--7----7-7---3--3-3---3---7----7----7-7---3--3-3----3---7---|
g 7--7------7---0--0-0---0---7-7--7------7-7-0--0-0----0-------|
d ---0------0-0-2-(2)2---0-0---0--0------0-0-2--2-0----0-x-----|  x2
a --------------3----3-----0---0---------0---3----2------------|
e -------------------------------------------------------------|

e 0------0-----------0-|
b 3---3--3-----3-----0-|
g 0---0--0-----0-------|
d 2---2--0-----0-(0)---|
a 3------2-------------|
e ---------------------|

e -----------------------------------------------------------------|
b -----------------------------------------------------------------|
g -----------------------------------------------------------------|
d ----0-------0-------0-------0-------0-------0-------0-------0----| x2
a -(2)--0---0---0---0---0---0---0---2---0---0---0---0---0---0---0--|
e 0-------2-------3-------2-------0-------2-------3-------2--------|

e ----------|
b ----------|
g ----------|
d ----------|
a ----------|
e 0---------|





Comments


Popular R.E.M. tabs & chords
Carnival Of Sorts Bass Tabs
Country Feedback 1 Bass Tabs
Whats The Frequency Kenneth Bass Tabs
Electrolite 2 Chords
Fall On Me Chords
Green Grow The Rushes Chords
Nightswimming Chords
Letter Never Sent Tabs
Psa Tabs
The Sidewinder Sleeps Tonight Tabs


Song lyrics



↑ Back to top | Tablatures and chords are parodies/interpretations of the original songs. You may use it for private study, scholarship, research or language learning purposes only
© 2014 AZChords.com Contact us | Privacy policy | DMCA | Add/correct tabs | Request tabs | Top 50 tabs