>
 >
Driver 8

Driver 8 Bass Tabs

R.E.M. - Driver 8 chords, tabs, tablatures, lyrics

Guitar lessons | Add/correct | Request | Top 50 tabs Artists:  A B C D E F G H I J K L M N O P Q R S T U V W X Y Z 0-9

Driver 8 Bass Tabs – R.E.M.

CD, Sheet music, Poster

Do you like Driver 8? Share with your friends now
Bass TabsChordsTabsTabs v2Ukulele
#

                Driver 8


Opening (and post-bridge):

G-|--------------------4--4--------
D-|-----------------s5---5-5-4-2---
A-|---------2-0-2-3--------------5-(Repeat 2x)
E-|-0-0-2-3------------------------

Verse:
The walls are built up, stone by stone...

G-|----------------------------                   ----------------------------
D-|----------------------4-2-0- (Repeat 3x, then) ---------------------5-4-2-0
A-|---------2-0-2-3---3--------                   ---------2-0-2-3---3--------
E-|-0-0-2-3---------3----------                   -0-0-2-3---------3----------

Chorus:
And the train conductor says, take a break Driver 8

G-|-------------------------------------------------
D-|(0)----------------------------------------------
A-|----3-3-2/3-5-5----3-3-2/3-5-5----3-3-2/3-5--3-2-
E-|-------------------------------------------------

But it's still a ways away...

G-|------------------------------
D-|------------------------------
A-|---------3--------------3-----  (Repeat as many times as neccesaray)
E-|-0-0-2-3---3-2-0--0-2-3---3-2-

Break:
A way to shield the hated heat...
(Play in a very countrified manor)

    Am               C            G             D(real fast)
G-|-------------------------------------4/5---------------------
D-|-------------------------------5-5/7-----7-5-------9p7-5-----
A-|-----/3-5-7-5-3--3-3/5--3-3/5----------------5-5/7-------7-5-
E-|-5-5---------------------------------------------------------

   Am             C             G              D
G-|-----------------------------------4/5-------------------
D-|-----------------------------5-5/7-----7-5---------------
A-|---/3-5-7-5-3--3-3/5--3-3/5-----------------5-5/7--5-5/7-
E-|-5-------------------------------------------------------(Opening riff)

End on open E.

Backing vocals: If you can't pick these out, you must be deaf.  There's the
"Driver 8" over the "Take a break Driver 8" part, and the echoing of "But
it's still a ways away" over the chorus.  Very easy to work in.





Comments


Popular R.E.M. tabs & chords
Losing My Religion 4 Bass Tabs
I Walked With A Zombie Chords
Fables Tabs
Hyena 1 Tabs
I Belong To You Tabs
Skin Tight Tabs
White Tornado Tabs
Crazy Ukulele
High Speed Train Ukulele
Pop Song Ukulele


Song lyrics



↑ Back to top | Tablatures and chords are parodies/interpretations of the original songs. You may use it for private study, scholarship, research or language learning purposes only
© 2014 AZChords.com Contact us | Privacy policy | DMCA | Add/correct tabs | Request tabs | Top 50 tabs