>
 >
Begin The Begin 1

Begin The Begin 1 Bass Tabs

R.E.M. - Begin The Begin 1 chords, tabs, tablatures, lyrics

Guitar lessons | Add/correct | Request | Top 50 tabs Artists:  A B C D E F G H I J K L M N O P Q R S T U V W X Y Z 0-9

Begin The Begin 1 Bass Tabs – R.E.M.

CD, Sheet music, Poster

Do you like Begin The Begin 1? Share with your friends now
Bass TabsBass Tabs v2Bass Tabs v3ChordsTabsUkulele
BEGIN THE BEGIN

bass tab by Dave Silverstone

Note:  There are a few things here that aren't quite right. Corrections for
the bridge especially would be apreciated.  Notes in parentases are
optional.

Intro:

Verse:
   F#                      A                                      E
G-|-----------------------------------------------------------------------------
D-|-----------------------------------------------------------------------------
A-|-----------------------------------------------2h3-3h4-4h5-5h6-7-7-6h7-7-(5)-
E-|-2-2-1h2-2-(0)-2-2-1h2-3-5-5-4h5-5-(0)-5-5-4-------------------------------

                F#             (Guitar Riff)F#                     A
G-|---------------------------------------------------------------------------
D-|-------------3-4-4-3h4-4-3-4-----------------------------------------------
A-|-7-7-6h7-7-6-----------------------2-0-------------------------------------
E-|---------------------------------------3-2-2-1h2-2-(0)-2-2-1h2-3-5-5-4h5-5-

                              E                         F#
G-|-----------------------------------------------------------------------------
D-|-----------------------------------------------------3-4-4-3h4-4-3-4-4-3h4-4-
A-|-----------2h3-3h4-4h5-5h6-7-7-6h7-7-(5)-7-7-6h7-7-6-------------------------
E-|-(0)-5-5-4-------------------------------------------------------------------

Refrain:(D)
G-|--------------------------------------------------------------
D-|--------5--5--5--5--5-5--0-3-2-0-------5--5--5--5--5-5-0-3-2-0
A-|--------------------------------------------------------------
E-|--------------------------------------------------------------

Bridge:
   F          G                    C#
G-|-----------------------------------------------------------------------------
D-|-----------------------------------------------------------------------------
A-|---------------------------------4--4-4----4---4-4-4---4--4-4-4----------
----E-|1--1--1--1-3----3------3------3--------------------------------------
--------

G-|------------------------------------------------
D-|------------------------------------------------
A-|3-3-3-2--2-2-0-0--------------------------------
E-|------------------3-3-3-2-2-1h2-2-(0)-2-2-1h2-2-

Ending:
   F        G    F       G    F      G     F       G
G-|-------------------------------------------------
D-|-------------------------------------------------
A-|-------------------------------------------------
E-|-1-1-1-1-3----1-1-1-1-3----1-1-1-1-3----1-1-1-1-3





Comments


Popular R.E.M. tabs & chords
Gardening At Night Bass Tabs
I Believe Bass Tabs
Parakeet Bass Tabs
Crazy Chords
First We Take Manhattan Chords
It Happened Today Chords
Uberlin 1 Chords
Disappear Tabs
I've Been High Tabs
Final Straw Ukulele


Song lyrics



↑ Back to top | Tablatures and chords are parodies/interpretations of the original songs. You may use it for private study, scholarship, research or language learning purposes only
© 2014 AZChords.com Contact us | Privacy policy | DMCA | Add/correct tabs | Request tabs | Top 50 tabs