>
 >
Begin The Begin

Begin The Begin Guitar Tabs

R.E.M. - Begin The Begin chords, tabs, tablatures, lyrics

Guitar lessons | Add/correct | Request | Top 50 tabs Artists:  A B C D E F G H I J K L M N O P Q R S T U V W X Y Z 0-9

Begin The Begin Guitar Tabs – R.E.M.

CD, Sheet music, Poster

Do you like Begin The Begin? Share with your friends now
Bass TabsBass Tabs v2Bass Tabs v3ChordsTabsUkulele
------------------------------------------------------------------------
                Begin The Begin - REM
------------------------------------------------------------------------

Verse:
e|----------------2---2---2----|
B|----------------2---2---2----|
G|------0-2-0-----3---3---3----|
D|-0-2-4-----4-0--4---4---4----|
A|----------------4---4---4----|
E|----------------2---0---2----|

e|-2---5-5-5---0-0-0---2-----------------|
B|-2---5-5-5---0-0-0---2-----------------|
G|-3---6-6-6---1-1-1---3--------0-2-0----|
D|-4---7-7-7---2-2-2---4---0-2-4-----4-0-|
A|-4---7-7-7---2-0-2---4-----------------|
E|-2---5-0-5---0-0-0---2-----------------|

e|-2---5-5-5---0-0-0---2---0--|
B|-2---5-5-5---0-0-0---2---0--|
G|-3---6-6-6---1-1-1---3---3--|
D|-4---7-7-7---2-2-2---4---4--|
A|-4---7-7-7---2-0-2---4---4--|
E|-2---5-0-5---0-0-0---2---0--|

Chorus:
e|-2-------2----------------|
B|-3-------3----------------|
G|-2-------2---0-2-0--------|
D|-0-------0--------4-0-----|
A|----2-3-0-----------------|
E|--------------------------|

Middle Bridge:
Guitar 1
e|-1---3--------3--------3-------4------------------2-|
B|-1---3--------3--------3-------6------------------2-|
G|-2---4--------4--------4-------6------------------3-|
D|-3---5--------5--------5-------6------------------4-|
A|-3---5--------5--------5-------4------------------4-|
E|-1---3--------3--------3-------4------------------2-|

Guitar 2
e|---------------------------------------------------|
B|------3-5b-3---3-5b-3---3-5b-3---------------------|
G|-------4--------4--------4------4p-0-2p-0----------|
D|-----------------------------------------4p-0-2p-0-|
A|---------------------------------------------------|
E|---------------------------------------------------|


End:
Guitar 1
e|-1---3-------------1---3----------------1---3----1---3-|
B|-1---3-------------1---3----------------1---3----1---3-|
G|-2---4-------------2---4----------------2---4----2---4-|
D|-3---5-------------3---5----------------3---5----3---5-|
A|-3---5-------------3---5----------------3---5----3---5-|
E|-1---3-------------1---3----------------1---3----1---3-|

Guitar 2
The 7/5 part is tapped on fretboard
e|----------------------------------------------12+-----|
B|------5-3p-0-3-5b-3------757575757575757------12+-----|
G|------------4---------------------------------12+-----|
D|----------------------------------------------12+-----|
A|----------------------------------------------12+-----|
E|----------------------------------------------12+-----|

************************************

| /   slide up
| \   slide down
| h   hammer-on
| p   pull-off
| ~   vibrato
| +   harmonic
| x   Mute note
| b   Bend
| pb  Pre-bend
| br  Bend release
| pbr Pre-bend release
| brb Bend release bend

************************************





Comments


Popular R.E.M. tabs & chords
How The West Was Won And Where It Got Us 1 Bass Tabs
Find The River Chords
Wait Chords
Body Count Tabs
Electrolite Tabs
Country Feedback Ukulele
Harbour Coat Ukulele
Mine Smell Like Honey Ukulele
Monty Got A Raw Deal Ukulele
That Beat Ukulele


Song lyrics



↑ Back to top | Tablatures and chords are parodies/interpretations of the original songs. You may use it for private study, scholarship, research or language learning purposes only
© 2014 AZChords.com Contact us | Privacy policy | DMCA | Add/correct tabs | Request tabs | Top 50 tabs