» » »

Refreshments, Banditos Tabs (ver.1)

Artists:  A B C D E F G H I J K L M N O P Q R S T U V W X Y Z # 

Banditos Tabs (ver.1)

Refreshments Tabs
Rating:
5/5 (8 votes)
Banditos lessons Tabs too difficult? Try these video lessons and learn fast
                #------------------------------------------------------------------------------##
#

"Banditos" - The Refreshments
(from the album "Fizzy, Fuzzy, Big and Buzzy", 1996)


---------------------------------------------------
There're only two main lead guitar parts that ya need:


RIFF1: (This is the main riff played throughout the
        1st chorus, w/3rd verse)

  E                        D
e:---4----0--|---0-----0--|---4----0--|---0-----0-|
B:-----------|------------|-----------|-----------|
G:/4----2----|/4---2------|/4----2----|/4---2-----|
D:-----------|------------|-----------|-----------|
A:-----------|------------|-----------|-----------|
E:-----------|------------|-----------|-----------|

  A                  E
e:--4------5--|--5--|---10--9---7|--5-4h5p4|
B:------------|-----|------------|---------|
G:4----4/6----|-6---|-11---9---7-|-6-------|
D:------------|-----|------------|---------|
A:------------|-----|------------|---------|
E:------------|-----|------------|---------|


RIFF2: (The lead guitar plays this in the first part of
        each chorus, the "Give your ID card...." part.
        But it won't sound good unless you have two
        guitars going .. If yer playing by yourself,
        just play the chords listed with the lyrics below.
        That is, leave out the maj7 chords)

  E            Emaj7 E            Amaj7 A          Amaj7 A
e:--------------------|-------------------|----------------|
B:--------------------|-------------------|----------------|
G:9------------8-----9|-----------13----14|--------13----14|
D:9------------9-----9|-----------14----14|--------14----14|
A:7------------7-----7|-----------12----12|--------12----12|
E:--------------------|-------------------|----------------|

            Emaj7 E           Emaj7 E      B   B6  B   B6
e:-----------------|-----------------|----|----------------|
B:-----------------|-----------------|----|----------------|
G:----------8-----9|----------8-----9|----|----------------|
D:----------9-----9|----------9-----9|----|4---6---4---6---|
A:----------7-----7|----------7-----7|----|2---2---2---2---|
E:-----------------|-----------------|----|----------------|

  B   B6  B   B6
e:--------------|
B:--------------|
G:--------------|
D:4---6---4---6-|
A:2---2---2---2-|
E:--------------|


THE SONG:

        E
So just how far down do you want to go

         D
We could talk it out over a cup of joe

              A
and you could look deep into my eyes like I was a

E
supermodel, uh huh


(w/ RIFF1) E D A E


          E(w/RIFF1)
Well it's you and me baby, no-one else we can trust

          D
Don't say nothing to no-one, no-how or we're bust

          A
and never crack a smile, or flinch, or cry for

E
nobody, uh huh


(CHORUS)
                 E(w/RIFF2)
  Well give your I.D. card to the border gaurd

            A
  Yeah your alias says you're captain Jean Luc Picard

          E
  of the United Federation of Planets

                        B
  'Cause he won't speak English anyway

  A              B
   And everybody knows

           E                C#m
  that the world is full of stupid people

     A                         B
  So meet me at the mission at midnight

                    E      A E A E G# A
  and we'll divy up there

  A          B
   Everybody knows

           E                C#m
  that the world is full of stupid people

       A                    B
  Yeah I got the pistols so I'll keep the pesos

                      E
  yeah and that seems fair

(w/RIFF1) E D A E

           E(w/RIFF1)
So put the sugar in the tank of the sherrif's car

              D
and slash the deputy's tires they won't get very far

          A
when they finally get the word that there's been a

E
hold-up, uh huh


-- CHORUS --


-- SOLO (over E D A E E D A E) --


-- CHORUS --

             D
  That seems fair

             A
  That seems fair

                  E
  Well that seems fa-i-a-i-a-i-ar

(There's another solo at the end, over these chords)
E D A E
E D A E

CHORD CHART:
I play the verses for this song using the chords in
standard position (that'd be the first version of
each chord shown), and the choruses using bar chords
(makes the change to the C#m easier, and better
sounding).

   E or E   D   A or A    B or B   G#   C#m or C#m
e:-0----7---2---0----5----2----7----4----4------0--|
B:-0----9---3---2----5----4----7----4----5------2--|
G:-1----9---2---2----6----4----8----5----6------1--|
D:-2----9---0---2----7----4----9----6----6------2--|
A:-2----7--(0)--0----7----2----9----6----4---------|
E:-0---(7)-----------5---(2)---7----4---(4)--------|

---------------------------------------------------
Des McKinney
des@idirect com)
---------------------------------------------------


There ya go

"Banditos" - The Refreshments
(from the album "Fizzy, Fuzzy, Big and Buzzy", 1996)


---------------------------------------------------
There're only two main lead guitar parts that ya need:


RIFF1: (This is the main riff played throughout the
        1st chorus, w/3rd verse)

  E                        D
e:---4----0--|---0-----0--|---4----0--|---0-----0-|
B:-----------|------------|-----------|-----------|
G:/4----2----|/4---2------|/4----2----|/4---2-----|
D:-----------|------------|-----------|-----------|
A:-----------|------------|-----------|-----------|
E:-----------|------------|-----------|-----------|

  A                  E
e:--4------5--|--5--|---10--9---7|--5-4h5p4|
B:------------|-----|------------|---------|
G:4----4/6----|-6---|-11---9---7-|-6-------|
D:------------|-----|------------|---------|
A:------------|-----|------------|---------|
E:------------|-----|------------|---------|


RIFF2: (The lead guitar plays this in the first part of
        each chorus, the "Give your ID card...." part.
        But it won't sound good unless you have two
        guitars going .. If yer playing by yourself,
        just play the chords listed with the lyrics below.
        That is, leave out the maj7 chords)

  E            Emaj7 E            Amaj7 A          Amaj7 A
e:--------------------|-------------------|----------------|
B:--------------------|-------------------|----------------|
G:9------------8-----9|-----------13----14|--------13----14|
D:9------------9-----9|-----------14----14|--------14----14|
A:7------------7-----7|-----------12----12|--------12----12|
E:--------------------|-------------------|----------------|

            Emaj7 E           Emaj7 E      B   B6  B   B6
e:-----------------|-----------------|----|----------------|
B:-----------------|-----------------|----|----------------|
G:----------8-----9|----------8-----9|----|----------------|
D:----------9-----9|----------9-----9|----|4---6---4---6---|
A:----------7-----7|----------7-----7|----|2---2---2---2---|
E:-----------------|-----------------|----|----------------|

  B   B6  B   B6
e:--------------|
B:--------------|
G:--------------|
D:4---6---4---6-|
A:2---2---2---2-|
E:--------------|


THE SONG:

        E
So just how far down do you want to go

         D
We could talk it out over a cup of joe

              A
and you could look deep into my eyes like I was a

E
supermodel, uh huh


(w/ RIFF1) E D A E


          E(w/RIFF1)
Well it's you and me baby, no-one else we can trust

          D
Don't say nothing to no-one, no-how or we're bust

          A
and never crack a smile, or flinch, or cry for

E
nobody, uh huh


(CHORUS)
                 E(w/RIFF2)
  Well give your I.D. card to the border gaurd

            A
  Yeah your alias says you're captain Jean Luc Picard

          E
  of the United Federation of Planets

                        B
  'Cause he won't speak English anyway

  A              B
   And everybody knows

           E                C#m
  that the world is full of stupid people

     A                         B
  So meet me at the mission at midnight

                    E      A E A E G# A
  and we'll divy up there

  A          B
   Everybody knows

           E                C#m
  that the world is full of stupid people

       A                    B
  Yeah I got the pistols so I'll keep the pesos

                      E
  yeah and that seems fair

(w/RIFF1) E D A E

           E(w/RIFF1)
So put the sugar in the tank of the sherrif's car

              D
and slash the deputy's tires they won't get very far

          A
when they finally get the word that there's been a

E
hold-up, uh huh


-- CHORUS --


-- SOLO (over E D A E E D A E) --


-- CHORUS --

             D
  That seems fair

             A
  That seems fair

                  E
  Well that seems fa-i-a-i-a-i-ar

(There's another solo at the end, over these chords)
E D A E
E D A E

CHORD CHART:
I play the verses for this song using the chords in
standard position (that'd be the first version of
each chord shown), and the choruses using bar chords
(makes the change to the C#m easier, and better
sounding).

   E or E   D   A or A    B or B   G#   C#m or C#m
e:-0----7---2---0----5----2----7----4----4------0--|
B:-0----9---3---2----5----4----7----4----5------2--|
G:-1----9---2---2----6----4----8----5----6------1--|
D:-2----9---0---2----7----4----9----6----6------2--|
A:-2----7--(0)--0----7----2----9----6----4---------|
E:-0---(7)-----------5---(2)---7----4---(4)--------|

---------------------------------------------------
Des McKinney
des@idirect com)
---------------------------------------------------
            

comments powered by Disqus
↑ Back to top | Refreshments Tabs for Banditos. Lyrics for acoustic guitar and electric guitar. Tablatures and chords are parodies/interpretations of the original songs. You may use it for private study, scholarship, research or language learning purposes only