» » »

Reamonn, Josephine Tabs (ver.2)

Artists:  A B C D E F G H I J K L M N O P Q R S T U V W X Y Z # 

Josephine Tabs (ver.2)

Reamonn Tabs
 Rating:
4/5 (4 votes)
Josephine lessons Tabs too difficult? Try these video lessons and learn fast
1
                Tuning: E A D G B e

|----------------------------------------------------------------|
|------------------------------------------------------------3---|
|--------------------------------------------------------0-------|
|----------------------------------------------------------------|
|----------------------------------------------------------------|
|----------------------------------------------------------------|

Intro(x1):
|----------------------------------------------------------------|
|-------0---------------0---------------0----------------0h1p0---|
|-----------0---------------0-------0-------0-------0------------|
|---0---------------0---------------------------0----------------|
|---------------2---------------3--------------------------------|
|3---------------------------------------------------------------|

|----------------------------------------------------------------|
|-------0---------------0---------------0------------------------|
|-----------0---------------0-------0-------0-------0------------|
|---0---------------0---------------------------0----------------|
|---------------2---------------3--------------------------------|
|3---------------------------------------------------------------|

Vers(x4):
|----------------------------------------------------------------|
|-------0---------------0---------------0---------------0--------|
|-----------0---------------0-------0-------0-------0-------0----|
|---0---------------0---------------------------0----------------|
|---------------2---------------3--------------------------------|
|3---------------------------------------------------------------|

Intro(x1):
|----------------------------------------------------------------|
|-------0---------------0---------------0----------------0h1p0---|
|-----------0---------------0-------0-------0-------0------------|
|---0---------------0---------------------------0----------------|
|---------------2---------------3--------------------------------|
|3---------------------------------------------------------------|

|----------------------------------------------------------------|
|-------0---------------0---------------0------------------------|
|-----------0---------------0-------0-------0-------0------------|
|---0---------------0---------------------------0----------------|
|---------------2---------------3--------------------------------|
|3---------------------------------------------------------------|

Vers(x4):
|----------------------------------------------------------------|
|-------0---------------0---------------0---------------0--------|
|-----------0---------------0-------0-------0-------0-------0----|
|---0---------------0---------------------------0----------------|
|---------------2---------------3--------------------------------|
|3---------------------------------------------------------------|

Chorus(x4):
G5                 B5                D5
|--------------------------------------------------------------------|
|--------------------------------------------------------------------|
|------------------4-4-4-4-4-4-x-x---5-5-5-5-5-5-5-5-5-5-5-5-5-5-5-5-|
|5-5-5-5-5-5-x-x---4-4-4-4-4-4-x-x---5-5-5-5-5-5-5-5-5-5-5-5-5-5-5-5-|
|5-5-5-5-5-5-x-x---2-2-2-2-2-2-x-x---3-3-3-3-3-3-3-3-3-3-3-3-3-3-3-3-|
|3-3-3-3-3-3-x-x-----------------------------------------------------|

Vers(x4):
|----------------------------------------------------------------|
|-------0---------------0---------------0---------------0--------|
|-----------0---------------0-------0-------0-------0-------0----|
|---0---------------0---------------------------0----------------|
|---------------2---------------3--------------------------------|
|3---------------------------------------------------------------|

Chorus(x4):
G5                 B5                C5
|--------------------------------------------------------------------|
|--------------------------------------------------------------------|
|------------------4-4-4-4-4-4-x-x---5-5-5-5-5-5-5-5-5-5-5-5-5-5-5-5-|
|5-5-5-5-5-5-x-x---4-4-4-4-4-4-x-x---5-5-5-5-5-5-5-5-5-5-5-5-5-5-5-5-|
|5-5-5-5-5-5-x-x---2-2-2-2-2-2-x-x---3-3-3-3-3-3-3-3-3-3-3-3-3-3-3-3-|
|3-3-3-3-3-3-x-x-----------------------------------------------------|

Bridge(x3):
E5                 C5                D5
|----------------------------------------------------------------|
|----------------------------------------------------------------|
|------------------5-5-5-5-5-5-5-5---7-7-7-7-7-7-7-7-7-7-7-------|
|2-2-2-2-2-2-2-2---5-5-5-5-5-5-5-5---7-7-7-7-7-7-7-7-7-7-7-------|
|2-2-2-2-2-2-2-2---3-3-3-3-3-3-3-3---5-5-5-5-5-5-5-5-5-5-5-------|
|0-0-0-0-0-0-0-0-------------------------------------------------|

Pre-Chorus(x1):
E5                 C5                D5
|--------------------------------------------------------------------|
|--------------------------------------------------------------------|
|------------------5-5-5-5-5-5-5-5---7-7-7-7-7-7-7-7-7-7-7-7-7-7-7-7-|
|2-2-2-2-2-2-2-2---5-5-5-5-5-5-5-5---7-7-7-7-7-7-7-7-7-7-7-7-7-7-7-7-|
|2-2-2-2-2-2-2-2---3-3-3-3-3-3-3-3---5-5-5-5-5-5-5-5-5-5-5-5-5-5-5-5-|
|0-0-0-0-0-0-0-0-----------------------------------------------------|

Chorus(x4):
G5                 B5                C5
|--------------------------------------------------------------------|
|--------------------------------------------------------------------|
|------------------4-4-4-4-4-4-x-x---5-5-5-5-5-5-5-5-5-5-5-5-5-5-5-5-|
|5-5-5-5-5-5-x-x---4-4-4-4-4-4-x-x---5-5-5-5-5-5-5-5-5-5-5-5-5-5-5-5-|
|5-5-5-5-5-5-x-x---2-2-2-2-2-2-x-x---3-3-3-3-3-3-3-3-3-3-3-3-3-3-3-3-|
|3-3-3-3-3-3-x-x-----------------------------------------------------|

Bridge(x3):
E5                 C5                D5
|------------------------------------------------------------|
|------------------------------------------------------------|
|------------------5-5-5-5-5-5-5-5---7-7-7-7-7-7-7-7-7-7-7---|
|2-2-2-2-2-2-2-2---5-5-5-5-5-5-5-5---7-7-7-7-7-7-7-7-7-7-7---|
|2-2-2-2-2-2-2-2---3-3-3-3-3-3-3-3---5-5-5-5-5-5-5-5-5-5-5---|
|0-0-0-0-0-0-0-0---------------------------------------------|

Outro(x1):
|---------------------------------------------------------------------------|
|---------------------------------------------------------------------------|
|------------------5-5-5-5-5-5-5-5---7-7-7-7-7-7-7-7-7-7-7--7--7------------|
|2-2-2-2-2-2-2-2---5-5-5-5-5-5-5-5---7-7-7-7-7-7-7-7-7-7-7--7--7---2-2-2-2-2|
|2-2-2-2-2-2-2-2---3-3-3-3-3-3-3-3---5-5-5-5-5-5-5-5-5-5-5--5--5---2-2-2-2-2|
|0-0-0-0-0-0-0-0---------------------------------------------------0-0-0-0-0|
            
Submit corrections

comments powered by Disqus
↑ Back to top | Reamonn Tabs for Josephine. Lyrics for acoustic guitar and electric guitar. 1 Tablatures and chords are parodies/interpretations of the original songs. You may use it for private study, scholarship, research or language learning purposes only