» » »

Reamonn, Moments Like This Tabs (ver.1)

Artists:  A B C D E F G H I J K L M N O P Q R S T U V W X Y Z # 

Moments Like This Tabs (ver.1)

Reamonn Tabs
 Rating:
4.2/5 (5 votes)
Moments Like This lessons Tabs too difficult? Try these video lessons and learn fast
1
                -----------------------------------------------------------------------------
                             Reamonn - Moments Like This
-----------------------------------------------------------------------------


Tuning: 
Standart: EADGBE

Intro: 

e|-----------------------------------------------------------|
B|-----------------------------------------------------------| 
G|-------------13---11-11-11---13---9-9-9---13---8-8-8---13--|
D|--11-11-11---13---11-11-11---13---9-9-9---13---8-8-8---13--| x2
A|--11-11-11---11---9--9--9----11---7-7-7---11---6-6-6---11--|
E|--9--9--9--------------------------------------------------|

Pre-Chorus:

Guitar 1:

e|-------------------------------------------------|
B|-------------------------------------------------|
G|--6-6-6-6-6--------------------------------------|
D|--6-6-6-6-6---7-7-7-7-7---2-2-2-2-2---9-9-9-9-9--| x2
A|--4-4-4-4-4---7-7-7-7-7---2-2-2-2-2---9-9-9-9-9--|
E|--------------5-5-5-5-5---0-0-0-0-0---7-7-7-7-7--|

Guitar 2:

e|-----------------------------------------------------------|
B|-----------------------------------------------------------| 
G|-------------13---11-11-11---13---9-9-9---13---8-8-8---13--|
D|--11-11-11---13---11-11-11---13---9-9-9---13---8-8-8---13--| x2
A|--11-11-11---11---9--9--9----11---7-7-7---11---6-6-6---11--|
E|--9--9--9--------------------------------------------------|


Then:

e|-------------------------------------------------------------------------|
B|-------------------------------------------------------------------------|
G|-------------------------------------------------------------------------|
D|--4-4-4-4-4-4-4-4---7-7-7-7-7-7-7-7---2-2-2-2-2-2-2-2---9-9-9-9-9-9-9-9--|
A|--4-4-4-4-4-4-4-4---7-7-7-7-7-7-7-7---2-2-2-2-2-2-2-2---9-9-9-9-9-9-9-9--|
E|--2-2-2-2-2-2-2-2---5-5-5-5-5-5-5-5---0-0-0-0-0-0-0-0---7-7-7-7-7-7-7-7--|


Chorus:

e|-------------------------------|
B|-------------------------------|
G|-------------------------------|
D|--7-7-7-7---2-2-2-2---9-9-9-9--| x5
A|--7-7-7-7---2-2-2-2---9-9-9-9--|
E|--5-5-5-5---0-0-0-0---7-7-7-7--|

THEN REPEAT INTRO x2

e|-----------------------------------------------------------|
B|-----------------------------------------------------------| 
G|-------------13---11-11-11---13---9-9-9---13---8-8-8---13--|
D|--11-11-11---13---11-11-11---13---9-9-9---13---8-8-8---13--| x2
A|--11-11-11---11---9--9--9----11---7-7-7---11---6-6-6---11--|
E|--9--9--9--------------------------------------------------|




************************************

| /   slide up
| \   slide down
| h   hammer-on
| p   pull-off
| ~   vibrato
| +   harmonic
| x   Mute note
| b   Bend
| pb  Pre-bend
| br  Bend release
| pbr Pre-bend release
| brb Bend release bend

************************************
            
Submit corrections

comments powered by Disqus
↑ Back to top | Reamonn Tabs for Moments Like This. Lyrics for acoustic guitar and electric guitar. 1 Tablatures and chords are parodies/interpretations of the original songs. You may use it for private study, scholarship, research or language learning purposes only