» » »

Real Estate, Its Real Tabs (ver.1)

Artists:  A B C D E F G H I J K L M N O P Q R S T U V W X Y Z # 

Its Real Tabs (ver.1)

Real Estate Tabs
 Rating:
3.4/5 (9 votes)
Its Real lessons Tabs too difficult? Try these video lessons and learn fast
1
                
Tune guitar up one whole step or...

CAPO ON 2ND FRET

All chords are based on standard tuning fingering (e.g. C7 is really D7 without the capo)

C7    X32310
Am    X02210
C     X32010
Fmaj7 1X3210
Gmaj7 3X5430

===Intro/Verse===

GUITAR 1 (Courtney)

    C7                 Am                 C
F#|-------3--------0-|-------0----------|-------0----------|
C#|---1--------1-----|---1--------1---1-|---1--------1---1-|
A |-3---3----3---3---|-2---2----2---2---|-0---0----0---0---|
E |------------------|------------------|------------------|
B |------------------|------------------|------------------|
F#|------------------|------------------|------------------|
    C7                 Fmaj7              Gmaj7
F#|-------3--------0-|-------0----------|-------0----------|
C#|---1--------1-----|---1--------1---1-|---3--------3---3-|
A |-3---3----3---3---|-2---2----2---2---|-4---4----4---4---|
E |------------------|------------------|------------------|
B |------------------|------------------|------------------|
F#|------------------|------------------|------------------|

GUITAR 2 (Mondanile)

    C7                 Am                 C
F#|-5---3------------|--------------3---|--------------3---|
C#|----------5---3-5-|------------------|-5--------3-5-----|
A |------------------|-5--------2-------|------------------|
E |------------------|------------------|------------------|
B |------------------|------------------|------------------|
F#|------------------|------------------|------------------|
    C7                 Fmaj7              Gmaj7
F#|-5---3------------|------------------|--------------3---|
C#|----------5---3-5-|--------------5---|-3--------3-5-----|
A |------------------|-5--------2-------|------------------|
E |------------------|------------------|------------------|
B |------------------|------------------|------------------|
F#|------------------|------------------|------------------|

===Chorus===

GUITAR 1 (Strum)

Am C Fmaj7
Am C Fmaj7 Gmaj7

GUITAR 2

    Am                 C                  Fmaj7
F#|-3---3----3--3--3-|-3---3----3--3--3-|------------------|------------------|
C#|-3h5------5--5--5-|-3h5------3--3--3-|------------------|------------------|
A |------------------|------------------|-5------0h2-------|------5-------5---|
E |------------------|------------------|------------------|--5/7-----5/7-----|
B |------------------|------------------|------------------|------------------|
F#|------------------|------------------|------------------|------------------|
    
    Am                 C                  Fmaj7              Gmaj7
F#|-3---3----3--3--3-|-3---3----3--3--3-|------------------|--------------3---|
C#|-3h5------5--5--5-|-3h5------3--3--3-|--------------5---|-3--------3-5-----|
A |------------------|------------------|-5--------2-------|------------------|
E |------------------|------------------|------------------|------------------|
B |------------------|------------------|------------------|------------------|
F#|------------------|------------------|------------------|------------------|

===Bridge===

GUITAR 1

(Strum)
C Gmaj7 Fmaj7

GUITAR 2

    C                  Gmaj7              Fmaj7 (strum)
F#|-3---3----5----3--|-3---3----5----3--|
C#|-3h5-----------3--|-3h5-----------3--|
A |------------------|------------------|
E |------------------|------------------|
B |------------------|------------------|
F#|------------------|------------------|

Repeat Chorus

===Ending===

GUITAR 1

    C7                 Am                 C
F#|-------3--------0-|-0----------------|-0----------------|
C#|---1--------1-----|-1----------------|-1----------------|
A |-3---3----3---3---|-2----------------|-0----------------|
E |------------------|-2----------------|-2----------------|
B |------------------|-0----------------|-3----------------|
F#|------------------|------------------|------------------|

GUITAR 2

    C7                 Am                 C
F#|-5---3------------|-0----------------|-0----------------|
C#|----------5---3-5-|-1----------------|-1----------------|
A |------------------|-2----------------|-0----------------|
E |------------------|-2----------------|-2----------------|
B |------------------|-0----------------|-3----------------|
F#|------------------|------------------|------------------|
            
Submit corrections

comments powered by Disqus
↑ Back to top | Real Estate Tabs for Its Real. Lyrics for acoustic guitar and electric guitar. 1 Tablatures and chords are parodies/interpretations of the original songs. You may use it for private study, scholarship, research or language learning purposes only