» » »

Reagan Youth, U.S.A Tabs (ver.2)

Artists:  A B C D E F G H I J K L M N O P Q R S T U V W X Y Z # 

U.S.A Tabs (ver.2)

Reagan Youth Tabs
 Rating:
4/5 (4 votes)
U.S.A lessons Tabs too difficult? Try these video lessons and learn fast
1
                This song is by Ragean Youth, titile USA. I allways thought it was USA for Anarchy :P. I 
it out, don't steal it. Its 100% correct.

e--------------------------------------|
B--------------------------------------|
G--------------------------------------| x4
D-111111111111111111-77777777-66666666-|
A-111111111111111111-77777777-66666666-|
E-9-9-9-9-9-9-9-9-9--55555555-44444444-|

e----------------------------|
B----------------------------|
G----------------------------|
D-11111111-9999-77777777-----| x4
A-11111111-9999-77777777-----|
E-9-9-9-9--7777-55555555-----|

e-9----9----9----9-------------------------------------|
B---88---88---88---88----------------------------------|
G------------------------------------------------------|
D---------------------77777777-66666666----------------| X2
A---------------------77777777-66666666----------------|
E---------------------55555555-44444444----------------|

e----------------------------|
B----------------------------|
G----------------------------|
D-11111111-9999-77777777-----| x4
A-11111111-9999-77777777-----|
E-9-9-9-9--7777-55555555-----|

e----------------------------------------|
B----------------------------------------|
G-88888888888888888888-------------------|
D-88888888888888888888-77777777-66666666-| X2
A-66666666666666666666-77777777-66666666-|
E----------------------55555555-44444444-|

e------------------|
B------------------|
G-8888-6666-444444-| X4
D-8888-6666-444444-|
A-6666-4444-222222-|
E------------------|
            
Submit corrections

comments powered by Disqus
↑ Back to top | Reagan Youth Tabs for U.S.A. Lyrics for acoustic guitar and electric guitar. 1 Tablatures and chords are parodies/interpretations of the original songs. You may use it for private study, scholarship, research or language learning purposes only