>
 >
U.S.A

U.S.A Guitar Tabs

Reagan Youth - U.S.A chords, tabs, tablatures, lyrics

Guitar lessons | Add/correct | Request | Top 50 tabs Artists:  A B C D E F G H I J K L M N O P Q R S T U V W X Y Z 0-9

U.S.A Guitar Tabs – Reagan Youth

CD, Sheet music, Poster

Do you like U.S.A? Share with your friends now
ChordsTabsTabs v2
-------------------------------------------------------------------------------
USA - Reagan Youth
Youth Anthems For The New Order
-------------------------------------------------------------------------------

Tuning: Standard

e|-------------------------------------------------------------------------------------|
B|-------------------------------------------------------------------------------------|
G|-6--6-6--6-6--6--6-6--6-6--6--6-6--6-6--6--6-6--6-6----------------------------------|
D|-6--6-6--6-6--6--6-6--6-6--6--6-6--6-6--6--6-6--6-6--7-7-7-7-7-7-7-7-6-6-6-6-6-6-6-6-|
A|-4--4-4--4-4--4--4-4--4-4--4--4-4--4-4--4--4-4--4-4--7-7-7-7-7-7-7-7-6-6-6-6-6-6-6-6-|
E|-----------------------------------------------------5-5-5-5-5-5-5-5-4-4-4-4-4-4-4-4-| x4

e|---------------------------------|
B|---------------------------------|
G|-6-6-6-6-------------------------|
D|-6-6-6-6-9-9-9-9-7-7-7-7-7-7-7-7-|
A|-4-4-4-4-9-9-9-9-7-7-7-7-7-7-7-7-|
E|---------7-7-7-7-5-5-5-5-5-5-5-5-| x4

e|---------------------------------------------------------------------|
B|-12-12--12-12-12--12-12-12--12-12------------------------------------|
G|-16-15--16-16-15--16-16-15--16-16------------------------------------|
D|-------------------------------------7-7-7-7-7-7-7-7-6-6-6-6-6-6-6-6-|
A|-------------------------------------7-7-7-7-7-7-7-7-6-6-6-6-6-6-6-6-|
E|-------------------------------------5-5-5-5-5-5-5-5-4-4-4-4-4-4-4-4-| x2

e|---------------------------------|
B|---------------------------------|
G|-6-6-6-6-------------------------|
D|-6-6-6-6-9-9-9-9-7-7-7-7-7-7-7-7-|
A|-4-4-4-4-9-9-9-9-7-7-7-7-7-7-7-7-|
E|---------7-7-7-7-5-5-5-5-5-5-5-5-| x4

e|------------------------------------------------------------------------------------|
B|------------------------------------------------------------------------------------|
G|-8--8-8--8-8--8--8-8--8-8--8--8-8--8-8--8--8-8--8-8---------------------------------|
D|-8--8-8--8-8--8--8-8--8-8--8--8-8--8-8--8--8-8--8-8-9-9-9-9-9-9-9-9-8-8-8-8-8-8-8-8-|
A|-6--6-6--6-6--6--6-6--6-6--6--6-6--6-6--6--6-6--6-6-9-9-9-9-9-9-9-9-8-8-8-8-8-8-8-8-|
E|----------------------------------------------------7-7-7-7-7-7-7-7-6-6-6-6-6-6-6-6-| x2

e|---------------------------------------|
B|---------------------------------------|
G|-8-8-8-8-------------------------------|
D|-8-8-8-8-11-11-11-11-9-9-9-9-9-9-9-9-9-|
A|-6-6-6-6-11-11-11-11-9-9-9-9-9-9-9-9-9-|
E|----------9--9--9--9-7-7-7-7-7-7-7-7-7-| x3

e|---------------------------------|
B|---------------------------------|
G|-8-8-8-8-------------------------|
D|-8-8-8-8-11-11-11-11-9--9--9--9--|
A|-6-6-6-6-11-11-11-11-9--9--9--9--|
E|----------9--9--9--9-7--7--7--7--|


| /  slide up
| \  slide down
| h  hammer-on
| p  pull-off
| ~  vibrato
| +  harmonic
| x  Mute note
===============================================================================





Comments


Popular Reagan Youth tabs & chords
In Dog We Trust Chords
U.S.A Chords
What Will The Neighbors Think? Chords
Acid Rain Tabs
Degenerated 2 Tabs
I Hate Hate Tabs
Jesus Was A Communist Tabs
Queen Babylon Tabs
In Dog We Trust Ukulele
What Will The Neighbors Think Ukulele


Song lyrics



↑ Back to top | Tablatures and chords are parodies/interpretations of the original songs. You may use it for private study, scholarship, research or language learning purposes only
© 2014 AZChords.com Contact us | Privacy policy | DMCA | Add/correct tabs | Request tabs | Top 50 tabs