>
 >
Before I Fall To Pieces 1

Before I Fall To Pieces 1 Guitar Tabs

Razorlight - Before I Fall To Pieces 1 chords, tabs, tablatures, lyrics

Guitar lessons | Add/correct | Request | Top 50 tabs Artists:  A B C D E F G H I J K L M N O P Q R S T U V W X Y Z 0-9

Before I Fall To Pieces 1 Guitar Tabs – Razorlight

CD, Sheet music, Poster

Do you like Before I Fall To Pieces 1? Share with your friends now
Bass TabsChordsChords v2TabsTabs v2
Before I fall to pieces - Razorlight


Intro

Guitar 2

e|-------------------------------------------------|e
b|-----------15------------------------------------|b
g|-------14------14---16---14---16---14------------|g
d|----16-------------------------------------------|d
a|-------------------------------------------------|a
e|-------------------------------------------------|e


Guitar 1                 
e|0---------------|----3-----3-----2--3-2-0-0|
b|0---------------|----3-----3-----3--3-3-3-3|
g|0---------------|----0-----0-----2--2-2-2-2|
d|0---------------|----0-----2-----0--0-0-0-0|
a|0---------------|----2-----3-----0--0-0-0-0|
e|0---------------|----3-----x-----x--x-x-x-x|



Bass

G|-------------------|
D|----------57h9p7--| X2
A|-2/5--5-7----------|
E|-------------------|

G|------------------------------|
D|-----------5-7h9p7--7-7-9-7---| 
A|-2/5--5-7-------------------9-|
E|------------------------------|

G|--------------------------------------|
D|------------5-5-57h9p7-7-7-7-7h9-7---| X2
A|-5-5-5--5-7-------------------------9-|
E|--------------------------------------|


Verse


Guitar 1

e|-0-----0-----2-|
b|-0-----0-----3-|
g|-0-----0-----2-|
d|-0-----2-----0-|
a|-2-----3-----0-|
e|-3-----x-----x-| repeat until chorus



Bass


e|---------------|
b|---------------|
g|---------------|
d|-------------0-|
a|-------3-------|
e|-3-------------|  repeat until chorus

Chorus

Bass

G|--------------------------------------|
D|------------5-5-57h9p7-7-7-7-7h9-7---|
A|-5-5-5--5-7-------------------------9-|
E|--------------------------------------| repeat till verse


Guitar 1


Guitar 1                             
e|0---------------|----3-----3-----2--3-2-0-0|
b|0---------------|----3-----3-----3--3-3-3-3|
g|0---------------|----0-----0-----2--2-2-2-2|
d|0---------------|----0-----2-----0--0-0-0-0|
a|0---------------|----2-----3-----0--0-0-0-0|
e|0---------------|----3-----x-----x--x-x-x-x|


Verse 
Chorus
Verse 
Chorus 





Comments


Popular Razorlight tabs & chords
I Cant Stop This Feeling Ive Got Bass Tabs
Burberry Blue Eyes Chords
Hey Ya Chords
America Tabs
Back To The Start Tabs
Golden Touch 2 Tabs
Heartbreak Soup Tabs
In The City Tabs
Dont Go Back To Dalston Ukulele
Fall To Pieces Ukulele


Song lyrics



↑ Back to top | Tablatures and chords are parodies/interpretations of the original songs. You may use it for private study, scholarship, research or language learning purposes only
© 2014 AZChords.com Contact us | Privacy policy | DMCA | Add/correct tabs | Request tabs | Top 50 tabs