» » »

Razorlight, Before I Fall To Pieces Tabs (ver.2)

Artists:  A B C D E F G H I J K L M N O P Q R S T U V W X Y Z # 

Before I Fall To Pieces Tabs (ver.2)

Razorlight Tabs
 Rating:
4/5 (10 votes)
Before I Fall To Pieces lessons Tabs too difficult? Try these video lessons and learn fast
                ---
Before I Fall to Pieces Chords
---

Remember, in this song use a Capo on the 7th fret!

Intro/Chorus: (listen to rhythm - its a bit choppy)
e|0---------------|----0-----0-----2--3-2-0-0|
b|0---------------|----0-----0-----3--3-3-3-3|
g|0---------------|----0-----0-----2--2-2-2-2|
d|0---------------|----0-----2-----0--0-0-0-0|
a|0---------------|----2-----3-----0--0-0-0-0|
e|0---------------|----3-----x-----x--x-x-x-x|
   (1st time only)    (x6)  (x6)  (x6)

Rhythm of the above riff (strum on x):
|1 + 2 + 3 + 4 + |
|x   x x   x x x |

Verse:
e|-0-----0-----2-|
b|-0-----0-----3-|
g|-0-----0-----2-|
d|-0-----2-----0-|
a|-2-----3-----0-|
e|-3-----x-----x-|
(Just repeat these three chords, play them slowly and softly)

That's about it really, Bjorn plays all the hard stuff (you know, them nice arpeggio-y 
he always does - I don't know the guitar technicalities, I'm a drummer at heart!). I may 
be tabbing that as well.
            
Submit corrections

comments powered by Disqus
↑ Back to top | Razorlight Tabs for Before I Fall To Pieces. Lyrics for acoustic guitar and electric guitar. Tablatures and chords are parodies/interpretations of the original songs. You may use it for private study, scholarship, research or language learning purposes only