>
 >
Party And Bullshit 1

Party And Bullshit 1 Guitar Tabs

Ratatat - Party And Bullshit 1 chords, tabs, tablatures, lyrics

Guitar lessons | Add/correct | Request | Top 50 tabs Artists:  A B C D E F G H I J K L M N O P Q R S T U V W X Y Z 0-9

Party And Bullshit 1 Guitar Tabs – Ratatat

CD, Sheet music, Poster

Do you like Party And Bullshit 1? Share with your friends now
TabsTabs v2

Ratatat's taken a great hip-hop song and somehow made it even better! Luckily for us, 
not too hard to pick up either. The vertical bars in the tablature correspond to one 
in the song.

h - hammer on
p - pull off

Verse:
                              /--*--\
e|-----------------|------------------|
B|-----------------|------------------|
G|---7-------------|------7-----------|
D|------5h6p5--3---|------------------| Repeat as necessary
A|-5------------3--|-3--5-----3--3-3--|
E|-----------------|------------------|

* Note: The three C notes in the marked section are occasionally omitted. Their rhythm 
also vary.

Chorus:

You can play this with the full barre chords if you like but I think the power chords 
better.

     D      G  G       G#      F  F
e|-----------------|------------------|
B|-----------------|------------------|
G|---7-------------|------------------|
D|---7------5--5---|---6-------3--3---|
A|---5------5--5---|---6-------3--3---|
E|----------3--3---|---4-------1--1---|





Comments


Popular Ratatat tabs & chords
Allure Bass Tabs
Germany To Germany Bass Tabs
Lex 2 Bass Tabs
Loud Pipes Tabs
Mirando Tabs
Party And Bullshit Intro Tabs
Sunblocks Tabs
Swisha Tabs
Tacobel Canon Tabs
Wildcat 3 Tabs


Song lyrics



↑ Back to top | Tablatures and chords are parodies/interpretations of the original songs. You may use it for private study, scholarship, research or language learning purposes only
© 2014 AZChords.com Contact us | Privacy policy | DMCA | Add/correct tabs | Request tabs | Top 50 tabs