» » »

Loud Pipes Bass tabs (ver.3)

Artists:  A B C D E F G H I J K L M N O P Q R S T U V W X Y Z # 

Loud Pipes Bass tabs (ver.3)

Ratatat
Rating:
0/5 (0 votes)

Hard to play? Try these video lessons and learn fast.
                Loud Pipes
Ratatat - Classics
Bass tabs

Each dash is a 1/16 note.

First riff
G|----------------|----------------|----------------|----------------|
D|----------------|----------------|----------------|------------1---|
A|--------1-----1-|3---------------|--------1-----1-|3-------3-------|
E|3----13------3--|--------1---1---|3----13------3--|----------------|

G|----------------|----------------|----------------|----------------|
D|----------------|----------------|----------------|------------1---|
A|--------1-----1-|3---------------|--------1-----1-|3-------3-------|
E|3----13------3--|--------1-------|3----13------3--|----------------|


Second riff
G|----------------|----------------|----------------|------------3---|
D|--------3-------|5---------5---5-|--------3-------|--------5-------|
A|----------3---3-|--------3-------|----------3---3-|----5-----------|
E|1---------------|----------------|1---------------|3---------------|

G|----------------|----------------|----------------|----------------|
D|--------3-------|5---------5---5-|--------3-------|--------5-------|
A|----------3---3-|--------3-------|----------3---3-|----5-----------|
E|1---------------|----------------|1---------------|3---------------|


Third riff
G|----------------|8-------/---12-----|
D|5-------5-8---8-|-------------------|
A|----------------|-------------------|
E|----------------|-------------------|

I am fairly certain that this is correct.  The only part I question is the second riff, 
bar 2, on the and of 3 and 4.
Those notes evade me, but judging from the box used and general layout of the song, I 
think this is right.  Enjoy.
            
Hard to play? Try these video lessons and learn fast. | Correct




comments powered by Disqus
↑ Back to top | Tablatures and chords are parodies/interpretations of the original songs. You may use it for private study, scholarship, research or language learning purposes only