» » »

Ratatat, Germany To Germany Tabs (ver.1)

Artists:  A B C D E F G H I J K L M N O P Q R S T U V W X Y Z # 

Germany To Germany Tabs (ver.1)

Ratatat Tabs
 Rating:
2.7/5 (7 votes)
Germany To Germany lessons Tabs too difficult? Try these video lessons and learn fast
1
                (Intro)
E --------------------------------------------------|
B---------------------------------------------------|
G----------------5s7--5-5-5s3-3-5s7--5-5-5s7-5-3-3--|
D--------------7------------------------------------|
A---------7--9--------------------------------------|    
E---------------------------------------------------|  x6

E-----------------------------|		
B-----------------------------|		
G-----------------------------|		
D-----------------------------|	 	
A-----------5----5-8----8-----|		
E----7----7----------------6--| x2 	


E--------------------------------|
B--------------------------------|
G------------------7s9-7---------|
D----------4s6-4--------6-4------|
A--------7--------------------6--|
E--7---9-------------------------|  x2
            
Submit corrections

comments powered by Disqus
↑ Back to top | Ratatat Tabs for Germany To Germany. Lyrics for acoustic guitar and electric guitar. 1 Tablatures and chords are parodies/interpretations of the original songs. You may use it for private study, scholarship, research or language learning purposes only