» » »

Germany To Germany Bass tabs (ver.1)

Artists:  A B C D E F G H I J K L M N O P Q R S T U V W X Y Z # 

Germany To Germany Bass tabs (ver.1)

Ratatat
Rating:
5/5 (2 votes)

Hard to play? Try these video lessons and learn fast.
                
G|-------------------------------------------------|
D|--------10-8-------------------------------------|
A|-------------10----10----------------------------|
E|8-10-11---------11-----10-11---------------------|

G|-------------------------------------------------|
D|--------10-8-------------------------------------|
A|-------------10----13----------------------------|
E|8-10-11---------11-------3-4---------------------|

Break, bass starts again at : 1:08	

G|-------------------------------------------------|
D|-------------------------------------------------|
A|----------6--6-----------------------------------|
E|8--8-6--6-------4--------------------------------|x2

G|-------------------------------------------------|
D|-------------------------------------------------|
A|6--8-----6--8------------------------------------|
E|-----8--------4----------------------------------|x4

G|-------------------------------------------------|
D|-----------6-10-8--------------------------------|
A|--------10--------10-----10----------------------|
E|8-10-11---------------11----10-11----------------|

G|-------------------------------------------------|
D|-----------6-10-8--------------------------------|
A|--------10--------10-----13----------------------|
E|8-10-11---------------11------3-4----------------|

G|-------------------------------------------------|
D|--------10-8-------------------------------------|
A|-------------10----10----------------------------|
E|8-10-11---------11-----10-11---------------------|

G|-------------------------------------------------|
D|-----------6-10-8--------------------------------|
A|--------10--------10-----13----------------------|
E|8-10-11---------------11------3-4----------------|

Break, then :

G|-------------------------------------------------|
D|-------------------------------------------------|
A|6-10---5-6-8-------------------------------------|
E|-----8-------4-----------------------------------|x4
            
Hard to play? Try these video lessons and learn fast. | Correct




comments powered by Disqus
↑ Back to top | Tablatures and chords are parodies/interpretations of the original songs. You may use it for private study, scholarship, research or language learning purposes only