>
 >
Preludio Obsesivo 1

Preludio Obsesivo 1 Guitar Tabs

Rata Blanca - Preludio Obsesivo 1 chords, tabs, tablatures, lyrics

Guitar lessons | Add/correct | Request | Top 50 tabs Artists:  A B C D E F G H I J K L M N O P Q R S T U V W X Y Z 0-9

Preludio Obsesivo 1 Guitar Tabs – Rata Blanca

CD, Sheet music, Poster

Do you like Preludio Obsesivo 1? Share with your friends now
TabsTabs v2

PRELUDIO OBSESIVO
As recorded by Rata Blanca
(From the 1988 Album RATA BLANCA)

        

Music by Walter Giardino

Gtr I (E A D G B E) - 'Walter Giardino'

 1st movement
  Fast Speed Metal Q=230
 4/4
  Gtr I
                   PM-------------------------------|     ~~
                   |--3---|  |--3--|  |--3--|  |--3--|
  Q    H.          E   E  E  E  E  E  E  E  E  E  E  E    H    H
|--------------|------------------12h17p12-------------|------------|
|--------------|---------------13----------13----------|------------|
|--------------|------------14----------------14-------|------------|
|--------------|---------14----------------------14----|------------|
|----/12-------|-(12)h15----------------------------15p|=12---------|
|--------------|---------------------------------------|------------|


   PM------------------------------|
   |--3--|  |--3--|  |--3--|  |--3--|
   E  E  E  E  E  E  E  E  E  E  E  E
|----------------12h17-12----------12h|
|-------------13----------13----13----|
|----------14----------------14-------|
|-------14----------------------------|
|-12h15-------------------------------|
|-------------------------------------|


                                       ~~~~      ~~~~~~~
   |--3--|  |--3--|
   E  E  E  S  S  S  E      +E.   S   +Q      E  E  +H.
|-17-12----------12-19b20==(19)-(19)r(19)--|-16-17-(17)----|
|-------13----13---------------------------|---------------|
|----------14------------------------------|---------------|
|------------------------------------------|---------------|
|------------------------------------------|---------------|
|------------------------------------------|---------------|


                                                       ~~~
                                    |--3--|
   H      H        +H.       Q      E  E  E  S  E  E.  Q.
|---------------|---------------|----------------------------|
|-------(13)----|-(13)\---------|----------------------------|
|--------14-----|-(14)\---------|--------------14-13--14-----|
|-14-----14-----|-(14)\---------|--------12-14---------------|
|--------12-----|-(12)\---------|-/12-15---------------------|
|---------------|---------------|----------------------------|


                           ~~~~~~~                       ~~~
   |--3--|  |--3--|  |--3--|          |--3--|
   E  E  E  E  E  E  E  E  E  +Q      E  E  E  S  E  E.  Q.
|----------------------------------|--------------------------|
|-------12-15-13-12----------------|--------------------------|
|-13-14-------------14-13-14-(14)--|-------------14-13--14----|
|----------------------------------|-------12-14--------------|
|----------------------------------|-12-15--------------------|
|----------------------------------|--------------------------|


                                    ~~~~
   |--3--|  |--3--|  |--3--|  |--3--|
   E  E  E  E  E  E  E  E  E  E  E  E
|-------------------12----------------||
|----------15-13-12----13-12----------||
|-13-14-16-------------------14-13-14-||
|-------------------------------------||
|-------------------------------------||
|-------------------------------------||


 2nd movement
 ~~~~~~ PM------------------|   ~~~~~~~
   +S   S  S  S  S  S  S  S  S  S  +Q.
|------------------17-21p17--------------|
|---------------17----------17-----------|
|-(14)-------18----------------18-(18)---|
|---------19-----------------------------|
|------19--------------------------------|
|----------------------------------------|


                     ~~      PM---------------------|   ~~~~~~~
   |--3--|  |--3--|
   E  E  E  E  E  E  H       S  S  S  S  S  S  S  S  S  S  +Q.
|-------------------------|-------------15-19p15-----------------|
|-15-14-15-17-15-17-18----|----------15----------15--------------|
|-------------------------|-------16----------------17-16-(16)---|
|-------------------------|----17--------------------------------|
|-------------------------|-17-----------------------------------|
|-------------------------|--------------------------------------|


                     ~~      PM---------------------|
   |--3--|  |--3--|
   E  E  E  E  E  E  H       S  S  S  S  S  S  S  S  S  S  +Q.
|-------------------------|-------------13-17-13-----------------|
|-13-12-12-15-13-15-17----|----------13----------13--------------|
|-------------------------|-------14----------------15-14-(14)---|
|-------------------------|----15--------------------------------|
|-------------------------|-15-----------------------------------|
|-------------------------|--------------------------------------|


                     ~~
   |--3--|  |--3--|
   E  E  E  E  E  E  H
|-------------------------|
|-11-10-11-13-11-13-15----|
|-------------------------|
|-------------------------|
|-------------------------|
|-------------------------|


   S  S  S  S  S  S  S  S  S  S  S  S  S  S  S  S        H      Q  Q
|-16-17-16-------16-17-16-------16-17-16-------22b24r|=(22)----16------|
|----------18-17----------18-17----------18-17-------|-----------------|
|----------------------------------------------------|-----------------|
|----------------------------------------------------|-----------------|
|----------------------------------------------------|-----------------|
|----------------------------------------------------|-----------------|


   PM---------------------|
   |--3--|  |--3--|  |--3--|        |--3--|  |--3--|
   E  E  E  E  E  E  E  E  E  Q     E  E  E  E  E  E  H
|-------------17-21p17-----------|-------------------------|
|----------17----------17--------|-15-14-15-17-15-17-18----|
|-------18----------------19-18--|-------------------------|
|----19--------------------------|-------------------------|
|-19-----------------------------|-------------------------|
|--------------------------------|-------------------------|


   PM---------------------|   ~~~~~~~
                                          |--3--|  |--3--|
   S  S  S  S  S  S  S  S  S  S  +Q.      E  E  E  E  E  E  H
|-------------15-19p15-----------------|-------------------------|
|----------15----------15--------------|-13-12-13-15-13-15-17----|
|-------16----------------17-16-(16)---|-------------------------|
|----17--------------------------------|-------------------------|
|-17-----------------------------------|-------------------------|
|--------------------------------------|-------------------------|


                                          |--3--|  |--3--|
   S  S  S  S  S  S  S  S  S  S  +Q.      E  E  E  E  E  E  H
|-------------13-17p13-----------------|-------------------------|
|----------13----------13--------------|-11-10-11-13-11-13-15----|
|-------14----------------15-14-(14)---|-------------------------|
|----15--------------------------------|-------------------------|
|-15-----------------------------------|-------------------------|
|--------------------------------------|-------------------------|


   |--3--|  |--3--|  |--3--|  |--3--|
   E  E  E  E  E  E  E  E  E  E  E  E
|-16-17-16----16----------------------|
|----------18----18-17-18-17-15-------|
|-------------------------------17-16-|
|-------------------------------------|
|-------------------------------------|
|-------------------------------------|


           \0.5_____________________________________
                                        ~~~~~~~
                         |--3--|  |--3--|
   S  H    E.    +Q      E  E  E  E  E  E  +Q   Q
|---------------------|----------------------------|
|---------------------|----------------------------|
|-14-13---------------|----------------------------|
|---------------------|----------------------------|
|----------2-----(2)--|-11-12-14-12-11-12-(12)-----|
|----------0-----(0)--|----------------------------|


 3rd movement
  |-3-| |-3-|  |-3--|  |-3--|    |--3--|  |--3--|  |-3-|  |-3-|
  E E E E E E  E E  E  E E  E    E  E  E  E  E  E  E E E  E E E
|-8p5---8p5---12p8----12p8----|-13p10----13p10----10p7---10p7---|
|-----5-----5------10------10-|-------12-------12------9------9-|
|-----------------------------|---------------------------------|
|-----------------------------|---------------------------------|
|-----------------------------|---------------------------------|
|-----------------------------|---------------------------------|


  |-3-| |-3-|  |-3--|  |-3--|    |--3--|  |--3--|  |-3-|  |-3-|
  E E E E E E  E E  E  E E  E    E  E  E  E  E  E  E E E  E E E
|-8p5---8p5---12p8----12p8----|-13p10----13p10----10p7---10p7---|
|-----5-----5------10------10-|-------12-------12------9------9-|
|-----------------------------|---------------------------------|
|-----------------------------|---------------------------------|
|-----------------------------|---------------------------------|
|-----------------------------|---------------------------------|


   |-3--|  |-3--|  |--3--|  |--3--|    |--3--|  |--3--|  |--3--|  |--3--|
   E E  E  E E  E  E  E  E  E  E  E    E  E  E  E  E  E  E  E  E  E  E  E
|-12p9----12p9----15p12----15p12----|-13p10----13p10----17p13----17p13----|
|------10------10-------14-------14-|-------10-------10-------15-------15-|
|-----------------------------------|-------------------------------------|
|-----------------------------------|-------------------------------------|
|-----------------------------------|-------------------------------------|
|-----------------------------------|-------------------------------------|


   |-3-|  |-3-|  |--3--|  |--3--|    |-3-|  |-3-|  |-3-|  |-3-|
   E E E  E E E  E  E  E  E  E  E    E E E  E E E  E E E  E E E
|-10p7---10p7---13p10----13p10----|-12p8---12p8---13p8---12p8---|
|------8------8-------12-------12-|------8------8------8------8-|
|---------------------------------|-----------------------------|
|---------------------------------|-----------------------------|
|---------------------------------|-----------------------------|
|---------------------------------|-----------------------------|


  |-3-| |-3-|  |-3--|  |-3--|    |--3--|  |--3--|  |--3--|  |--3--|
  E E E E E E  E E  E  E E  E    E  E  E  E  E  E  E  E  E  E  E  E
|-8p5---8p5---12p8----12p8----|-13p10----13p10----16p13----16p13----|
|-----5-----5------10------10-|-------12-------12-------15-------15-|
|-----------------------------|-------------------------------------|
|-----------------------------|-------------------------------------|
|-----------------------------|-------------------------------------|
|-----------------------------|-------------------------------------|


   |--3--|  |--3--|  |--3--|  |-3-|   |-3-| |-3-|  |-3--|  |-3--|
   E  E  E  E  E  E  E  E  E  E E E   E E E E E E  E E  E  E E  E
|-19p16----16p13----13p10----10p7---|-8p5---8p5---12p8----12p8----|
|-------18-------15-------12------9-|-----5-----5------10------10-|
|-----------------------------------|-----------------------------|
|-----------------------------------|-----------------------------|
|-----------------------------------|-----------------------------|
|-----------------------------------|-----------------------------|


   |--3--|  |--3--|  |--3--|  |-3-|   |-3-| |-3-|  |-3--|  |-3--|
   E  E  E  E  E  E  E  E  E  E E E   E E E E E E  E E  E  E E  E
|-19p16----16p13----13p10----10p7---|-8p5---8p5---12p8----12p8----|
|-------18-------15-------12------9-|-----5-----5------10------10-|
|-----------------------------------|-----------------------------|
|-----------------------------------|-----------------------------|
|-----------------------------------|-----------------------------|
|-----------------------------------|-----------------------------|


 2/4             4/4
   |-3-|  |-3-|    |-3-|  |-3-| |-3-| |-3-|    |-3-|  |-3-| |-3-| |-3-|
   E E E  E E E    E E E  E E E E E E E E E    E E E  E E E E E E E E E
|-10p7---10p7---|-12p8---12p8---8p5---8p5---|-10p6---10p6---7p4---7p4----|
|------8------8-|------8------8-----6-----6-|------6------6-----6-----6--|
|---------------|---------------------------|----------------------------|
|---------------|---------------------------|----------------------------|
|---------------|---------------------------|----------------------------|
|---------------|---------------------------|----------------------------|


  |-3-| |-3-| |-3-| |-3-|   |-3-| |-3-| |-3-| |-3-|
  E E E E E E E E E E E E   E E E E E E E E E E E E
|-8p5---8p5---8p5---8p5---|-8p5---8p5---8p5---8p5---|
|-----5-----5-----5-----5-|-----5-----5-----7-----7-|
|-------------------------|-------------------------|
|-------------------------|-------------------------|
|-------------------------|-------------------------|
|-------------------------|-------------------------|


   |-3--|  |-3--|  |--3--|  |--3--|    |--3--|  |--3--|  |--3--|  |--3--|
   E E  E  E E  E  E  E  E  E  E  E    E  E  E  E  E  E  E  E  E  E  E  E
|-11p8----11p8----14p11----14p11----|-17p12----17p12----17p12----17p12----|
|------10------10-------13-------13-|-------13-------13-------13-------13-|
|-----------------------------------|-------------------------------------|
|-----------------------------------|-------------------------------------|
|-----------------------------------|-------------------------------------|
|-----------------------------------|-------------------------------------|


   |--3--|  |--3--|  |--3--|  |--3--|    |--3--|  |--3--|  |--3--|  |--3--|
   E  E  E  E  E  E  E  E  E  E  E  E    E  E  E  E  E  E  E  E  E  E  E  E
|-16p12----16p12----16p12----16p12----|-15p12----15p12----15p12----15p12----|
|-------13-------13-------13-------13-|-------14-------14-------14-------14-|
|-------------------------------------|-------------------------------------|
|-------------------------------------|-------------------------------------|
|-------------------------------------|-------------------------------------|
|-------------------------------------|-------------------------------------|


   |--3--|  |--3--|  |--3--|  |--3--|    |--3--|  |--3--|  |--3--|  |--3--|
   E  E  E  E  E  E  E  E  E  E  E  E    E  E  E  E  E  E  E  E  E  E  E  E
|-18p15----18p15----18p15----18p15----|-17p13----17p13----17p13----17p13----|
|-------17-------17-------17-------17-|-------15-------15-------15-------15-|
|-------------------------------------|-------------------------------------|
|-------------------------------------|-------------------------------------|
|-------------------------------------|-------------------------------------|
|-------------------------------------|-------------------------------------|


   |--3--|  |--3--|  |--3--|  |--3--|    |-3--|  |-3--|  |-3--|  |-3--|
   E  E  E  E  E  E  E  E  E  E  E  E    E E  E  E E  E  E E  E  E E  E
|-18p12----17p13----17p13----17p13----|-12p9----12p9----12p9----12p9----|
|-------15-------15-------15-------15-|------11------11------11------11-|
|-------------------------------------|---------------------------------|
|-------------------------------------|---------------------------------|
|-------------------------------------|---------------------------------|
|-------------------------------------|---------------------------------|


   |--3--|  |--3--|  |--3--|  |--3--|    |--3--|  |--3--|  |--3--|  |--3--|
   E  E  E  E  E  E  E  E  E  E  E  E    E  E  E  E  E  E  E  E  E  E  E  E
|-15p12----15p12----15p12----13p10----|-13p10----13p10----13p10----13p10----|
|-------14-------14-------14-------10-|-------10-------10-------10-------12-|
|-------------------------------------|-------------------------------------|
|-------------------------------------|-------------------------------------|
|-------------------------------------|-------------------------------------|
|-------------------------------------|-------------------------------------|


   |--3--|  |--3--|  |--3--|  |-3-|    |-3-|  |-3-|  |-3-|  |--3--|
   E  E  E  E  E  E  E  E  E  E E E    E E E  E E E  E E E  E  E  E
|-13p10----13p10----13p10----10p7---|-10p7---10p7---10p7---17p12----|
|-------12-------12-------12------9-|------9------9------9-------13-|
|-----------------------------------|-------------------------------|
|-----------------------------------|-------------------------------|
|-----------------------------------|-------------------------------|
|-----------------------------------|-------------------------------|


   |--3--|  |--3--|  |--3--|  |--3--|    |--3--|  |--3--|  |--3--|  |--3--|
   E  E  E  E  E  E  E  E  E  E  E  E    E  E  E  E  E  E  E  E  E  E  E  E
|-17p12----17p12----17p12----20p17----|-20p17----17p14----17p14----14p11----|
|-------13-------13-------13-------19-|-------19-------16-------16-------13-|
|-------------------------------------|-------------------------------------|
|-------------------------------------|-------------------------------------|
|-------------------------------------|-------------------------------------|
|-------------------------------------|-------------------------------------|


                                    Interlude
   |--3--|  |-3--|  |-3--| |-3--|    |-3--| |-3--| |-3-| |-3--|
   E  E  E  E E  E  E E  E E E  E    E E  E E E  E E E E E E  E
|-14p11----11p8----11p8----0-0-13-||-0-0-12-0-0-10-0-0-8-0-0-12-|
|-------13------10------10--------||----------------------------|
|---------------------------------||----------------------------|
|---------------------------------||----------------------------|
|---------------------------------||----------------------------|
|---------------------------------||----------------------------|


  |-3--| |-3-| |-3-| |-3--|   |-3-| |-3-| |-3-| |-3-|
  E E  E E E E E E E E E  E   E E E E E E E E E E E E
|-0-0-10-0-0-8-0-0-7-0-0-10-|-0-0-8-0-0-7-0-0-5-0-0-8-|
|---------------------------|-------------------------|
|---------------------------|-------------------------|
|---------------------------|-------------------------|
|---------------------------|-------------------------|
|---------------------------|-------------------------|


  |-3-| |-3-| |-3-| |-3--|   |-3--| |-3--| |-3-| |-3--|
  E E E E E E E E E E E  E   E E  E E E  E E E E E E  E
|-0-0-7-0-0-5-0-0-4-0-0-13-|-0-0-12-0-0-10-0-0-8-0-0-12-|
|--------------------------|----------------------------|
|--------------------------|----------------------------|
|--------------------------|----------------------------|
|--------------------------|----------------------------|
|--------------------------|----------------------------|


  |-3--| |-3-| |-3-| |-3--|   |-3-| |-3-| |-3-| |-3-|
  E E  E E E E E E E E E  E   E E E E E E E E E E E E
|-0-0-10-0-0-8-0-0-7-0-0-10-|-0-0-8-0-0-7-0-0-5-0-0-8-|
|---------------------------|-------------------------|
|---------------------------|-------------------------|
|---------------------------|-------------------------|
|---------------------------|-------------------------|
|---------------------------|-------------------------|


  |-3-| |-3-| |-3-| |-3-|   |-3-| |-3-|  |-3-|  |-3--|
  E E E E E E E E E E E E   E E E E E E  E E E  E  E E
|-0-0-7-0-0-5-0-0-4-5-7-4-|-5-7-8-5-7-8-10-7-8-10-12-8-|
|-------------------------|----------------------------|
|-------------------------|----------------------------|
|-------------------------|----------------------------|
|-------------------------|----------------------------|
|-------------------------|----------------------------|


   |--3--|  |--3--|  |--3--| |-3--|
   E  E  E  E  E  E  E  E  E E  E E    E  E  Q.     Q.
|-10-12-13-12-10--------------------|--------------------|
|----------------13-12-10-12-9-10---|--------------------|
|---------------------------------9-|-10-----------------|
|-----------------------------------|----12--------------|
|-----------------------------------|-------11b15--------|
|-----------------------------------|--------------------|


  Q  Q  +H       +H     H
|--------------|-------------|
|--------------|-------------|
|--------------|-------------|
|-2--2--(2)----|-(2)---------|
|-2--0--(0)----|-(0)---------|
|-0--0--(0)----|-(0)---------|


 4th movement
   |--3--|  |--3--|  |--3--|  |--3--|    |--3--|  |--3--|  |--3--|  |--3--|
   E  E  E  E  E  E  E  E  E  E  E  E    E  E  E  E  E  E  E  E  E  E  E  E
|-16p12----12-16p12----12-16p12----12-|-13p12----12-16p12----12-16p12----20-|
|-------15----------15----------15----|-------15----------15----------15----|
|-------------------------------------|-------------------------------------|
|-------------------------------------|-------------------------------------|
|-------------------------------------|-------------------------------------|
|-------------------------------------|-------------------------------------|


   |--3--|  |--3--| |--3--| |--3--|    |--3--|  |--3--|
   E  E  E  E  E  E E  E  E E  E  E    E  E  E  E  E  E  +H
|-17----17p12----12p8----12p8----13-|-12-10-16-13----17-(17)----|
|----17-------13------10------10----|-------------15------------|
|-----------------------------------|---------------------------|
|-----------------------------------|---------------------------|
|-----------------------------------|---------------------------|
|-----------------------------------|---------------------------|


   |--3--|  |--3--|  |--3--|  |--3--|    |--3--|  |--3--|  |--3--|  |--3--|
   E  E  E  E  E  E  E  E  E  E  E  E    E  E  E  E  E  E  E  E  E  E  E  E
|-16p12----12-16p12----12-16p12----12-|-13p12----12-16p12----12-16p12----20-|
|-------15----------15----------15----|-------15----------15----------15----|
|-------------------------------------|-------------------------------------|
|-------------------------------------|-------------------------------------|
|-------------------------------------|-------------------------------------|
|-------------------------------------|-------------------------------------|


   |--3--|  |--3--| |--3--| |--3--|
   E  E  E  E  E  E E  E  E E  E  E
|-17----17p12----12p8----12p8----13-|
|----17-------13------10------10----|
|-----------------------------------|
|-----------------------------------|
|-----------------------------------|
|-----------------------------------|


                              Bridge
   |--3--|  |--3--|
   E  E  E  E  E  E  +H         E  E  E  E  E  E  E  E
|-12-10-16-13----17-(17)----||----17----17----17----17-|
|-------------15------------||-20----18----17----19----|
|---------------------------||-------------------------|
|---------------------------||-------------------------|
|---------------------------||-------------------------|
|---------------------------||-------------------------|


   |--3--|  |--3--|
   E  E  E  E  E  E  +Q   Q
|----------------------------|
|-14-15-17-15-14-15-(15)-----|
|----------------------------|
|----------------------------|
|----------------------------|
|----------------------------|


                             |--3--|  |--3--|
   E  E  E  E  E  E  E  E    E  E  E  E  E  E  +Q   Q
|----15----15----15----15-|----------------------------|
|-18----17----15----------|-12-13-15-13-12-13-(13)-----|
|-------------------17----|----------------------------|
|-------------------------|----------------------------|
|-------------------------|----------------------------|
|-------------------------|----------------------------|


   |--3--|  |--3--|  |-3-|  |-3-|    |-3--|  |-3--| |-3-| |-3-|
   E  E  E  E  E  E  E E E  E E E    E E  E  E E  E E E E E E E
|-13p10----13p10----10p7---10p7---|-12p8----12p8----8p5---8p5----|
|-------12-------12------9------9-|------10------10-----5-----5\-|
|---------------------------------|------------------------------|
|---------------------------------|------------------------------|
|---------------------------------|------------------------------|
|---------------------------------|------------------------------|


                              ~~~~~~~~~~
   |--3--|  |--3--|  |--3--|
   E  E  E  E  E  E  E  E  E  Q     +H     H       E  E  E  E  E  E  E  E
|-13-12-10-----------------------|--------------|----17----17----17----17-|
|----------13-12-10----10-12-10--|-(10)---------|-20----18----17----15----|
|-------------------12-----------|--------------|-------------------------|
|--------------------------------|--------------|-------------------------|
|--------------------------------|--------------|-------------------------|
|--------------------------------|--------------|-------------------------|


   |--3--|  |--3--|
   E  E  E  E  E  E  +Q   Q
|----------------------------|
|-14-16-17-15-14-15-(15)-----|
|----------------------------|
|----------------------------|
|----------------------------|
|----------------------------|


                             |--3--|  |--3--|
   E  E  E  E  E  E  E  E    E  E  E  E  E  E  +Q   Q
|----15----15----15----15-|----------------------------|
|-18----17----15----------|-12-13-15-13-12-13-(13)-----|
|-------------------17----|----------------------------|
|-------------------------|----------------------------|
|-------------------------|----------------------------|
|-------------------------|----------------------------|


   |--3--|  |--3--|  |-3-|  |-3-|    |-3--|  |-3--| |-3-| |-3-|
   E  E  E  E  E  E  E E E  E E E    E E  E  E E  E E E E E E E
|-13p10----13p10----10p7---10p7---|-12p8----12p8----8p5---8p5---|
|-------12-------12------9------9-|------10------10-----5-----5-|
|---------------------------------|-----------------------------|
|---------------------------------|-----------------------------|
|---------------------------------|-----------------------------|
|---------------------------------|-----------------------------|


                                  Interlude
                              ~~                  ~~~~~~~~
   |--3--|  |--3--|  |--3--|
   E  E  E  E  E  E  E  E  E  Q     W             a     W
|-13-12-10-----------------------|-------------------|-------|
|----------13-12-10----10-12-10--|-10b12r=======(10)-|-10----|
|-------------------12-----------|-------------------|-------|
|--------------------------------|-------------------|-------|
|--------------------------------|-------------------|-------|
|--------------------------------|-------------------|-------|


    ~~~~~~~~~~~~~~~~~~~~~~~~~~~~~~~~~~~~~~~~~~~~~~
   +W            +W            W              +H.      Q
|-------------|-------------|-15b21--------|-(15)---------|
|-(10)--------|-(10)--------|--------------|--------------|
|-------------|-------------|--------------|--------------|
|-------------|-------------|--------------|--------------|
|-------------|-------------|--------------|--------------|
|-------------|-------------|--------------|--------------|


   ~~~~~~~~~~~~~~~~~~~~
   W               +H.      Q     S  S S  S  Q   +H        Q   Q   H
|-15b21=========|=(15)---------|-16-15---13-12--(12)----|-13--12--------|
|---------------|--------------|------------------------|---------15----|
|---------------|--------------|------------------------|---------------|
|---------------|--------------|------------------------|---------------|
|---------------|--------------|------------------------|---------------|
|---------------|--------------|------------------------|---------------|


                                       |--3--|  |--3--|  |--3--|  |--3--|
   +W            Q   Q   E  E  E  E    E  E  E  E  E  E  E  E  E  E  E  E
|-------------|-----12--13-15-13-12-|----13-12-------12-------------------|
|-(15)--------|-15------------------|-15-------15-13----15-13-12-15-13-12-|
|-------------|---------------------|-------------------------------------|
|-------------|---------------------|-------------------------------------|
|-------------|---------------------|-------------------------------------|
|-------------|---------------------|-------------------------------------|


                                                          Guitar Break
               ~~
   E  E  E  E  H       E  E  +Q    +H        +W            Q  Q  Q   Q
|-------------------|---------------------|-------------||-5--7--8--10--|
|-------------------|---------------------|-------------||--------------|
|-14-13-14-16-14----|-13-14-(14)--(14)----|-(14)--------||--------------|
|-------------------|---------------------|-------------||--------------|
|-------------------|---------------------|-------------||--------------|
|-------------------|---------------------|-------------||--------------|


                                          |--3--|  |--3--|  |--3--|  |--3--|
   +Q    E E  H       E  E  Q   Q   Q     E  E  E  E  E  E  E  E  E  E  E  E
|-(10)--10-8-10----|-12-17-19--19--19--|-19-17-16-17-16----16----------------|
|------------------|-------------------|----------------18----18-17-18-17-15-|
|------------------|-------------------|-------------------------------------|
|------------------|-------------------|-------------------------------------|
|------------------|-------------------|-------------------------------------|
|------------------|-------------------|-------------------------------------|


   |--3--|  |--3--|  |--3--|  |--3--|    |--3--|  |--3--|  |--3--|  |--3--|
   E  E  E  E  E  E  E  E  E  E  E  E    E  E  E  E  E  E  E  E  E  E  E  E
|-------------------------------------|-------------------------------------|
|-17-15----15-------------------------|-------------------------------------|
|-------17----17-16-17-16-17-16-14-16-|-14-13-14-13----13-------------------|
|-------------------------------------|-------------15----15-14-15-14-12-14-|
|-------------------------------------|-------------------------------------|
|-------------------------------------|-------------------------------------|


   |--3--|  |-3--| |-3-| |-3-|   |-3-| |-3-| |-3-| |-3-|
   E  E  E  E E  E E E E E E E   E E E E E E E E E E E E
|------------------------------|-------------------------|
|------------------------------|-------------------------|
|------------------------------|-------------------------|
|-12-10-12-10-9-10-9-7-9-7-6-7-|-6---6-------------------|
|------------------------------|---8---8-7-8-7-5-7-5---7-|
|------------------------------|---------------------8---|


  |-3-| |-3-|                             |-3-| |-3-| |-3-|
  E E E E E E E E Q    +W             Q   E E E E E E E E E
|--------------------|------------|--------------------------|
|--------------------|------------|--------------------------|
|--------------------|------------|--------------------------|
|--------------------|------------|--------------------------|
|--------------------|------------|-(12)s=0-2-3-2-3-5-3-5-7--|
|-8-7-8-7-5-7-5-4-5--|-(5)--------|--------------------------|


  |-3-| |-3-| |-3-| |-3-|   |-3--| |-3--|  |-3-| |-3--|
  E E E E E E E E E E E E   E E  E E  E E  E E E E E  E
|-------------------------|-----------------------------|
|-------------------------|-----------------------------|
|-------------------------|-------------7----7-9-7-9-10-|
|-----------6---6-7-6-7-9-|-7-9-10-9-10---10------------|
|-5-7-8-7-8---8-----------|-----------------------------|
|-------------------------|-----------------------------|


  |-3--|  |-3--| |--3--|  |--3--|    |--3--|  |--3--|  |--3--|  |--3--|
  E  E E  E E  E E  E  E  E  E  E    E  E  E  E  E  E  E  E  E  E  E  E
|---------------------------------|-------10----10-12-10-12-13-12-13-16-|
|------9----9-10-9-10-12-10-12-13-|-12-13----13-------------------------|
|-9-10---10-----------------------|-------------------------------------|
|---------------------------------|-------------------------------------|
|---------------------------------|-------------------------------------|
|---------------------------------|-------------------------------------|


                        Outro
                          ~~~~~~~~~~~~~~~~~~~~~~~~~~
   |--3--|
   E  E  E  Q   +H        W           W           W
|-13-16-13-16--(16)----|-17--------|-16--------|-17----|
|----------------------|-----------|-----------|-------|
|----------------------|-----------|-----------|-------|
|----------------------|-----------|-----------|-------|
|----------------------|-----------|-----------|-------|
|----------------------|-----------|-----------|-------|


    ~~~~~~~~~~~~~~~~~~~~~~~~~~~~~~~~~~~~~~~~~
   +W            W           W           +W
|-(17)--------|-17--------|-16--------|-(16)----|
|-------------|-----------|-----------|---------|
|-------------|-----------|-----------|---------|
|-------------|-----------|-----------|---------|
|-------------|-----------|-----------|---------|
|-------------|-----------|-----------|---------|


 Triads movement
   |--3--|  |--3--|  |--3--|  |--3--|    |--3--|  |--3--|  |--3--|  |--3--|
   E  E  E  E  E  E  E  E  E  E  E  E    E  E  E  E  E  E  E  E  E  E  E  E
|-20-19-17-20-19-17-20-19-19-20-19-17-|-20-19-17-20-19-17-20-19-19-20-19-17-|
|-------------------------------------|-------------------------------------|
|-------------------------------------|-------------------------------------|
|-------------------------------------|-------------------------------------|
|-------------------------------------|-------------------------------------|
|-------------------------------------|-------------------------------------|


   |--3--|  |--3--|  |--3--|  |--3--|    |--3--|  |--3--|  |--3--|  |--3--|
   E  E  E  E  E  E  E  E  E  E  E  E    E  E  E  E  E  E  E  E  E  E  E  E
|-20-19-17-20-19-17-20-19-19-20-19-17-|-20-19-17-20-19-17-20-19-19-20-19-17-|
|-------------------------------------|-------------------------------------|
|-------------------------------------|-------------------------------------|
|-------------------------------------|-------------------------------------|
|-------------------------------------|-------------------------------------|
|-------------------------------------|-------------------------------------|


   |--3--|  |--3--|  |--3--|  |--3--|    |--3--|  |--3--|  |--3--|  |--3--|
   E  E  E  E  E  E  E  E  E  E  E  E    E  E  E  E  E  E  E  E  E  E  E  E
|-------------------------------------|-------------------------------------|
|-18-15-17-18-17-15-18-15-17-18-17-15-|-18-15-17-18-17-15-18-15-17-18-17-15-|
|-------------------------------------|-------------------------------------|
|-------------------------------------|-------------------------------------|
|-------------------------------------|-------------------------------------|
|-------------------------------------|-------------------------------------|


   |--3--|  |--3--|  |--3--|  |--3--|    |--3--|  |--3--|  |--3--|  |--3--|
   E  E  E  E  E  E  E  E  E  E  E  E    E  E  E  E  E  E  E  E  E  E  E  E
|-------------------------------------|-------------------------------------|
|-18-15-17-18-17-15-18-15-17-18-17-15-|-18-15-17-18-17-15-18-15-17-18-17-15-|
|-------------------------------------|-------------------------------------|
|-------------------------------------|-------------------------------------|
|-------------------------------------|-------------------------------------|
|-------------------------------------|-------------------------------------|


   |--3--|  |--3--|  |--3--|  |--3--|    |--3--|  |--3--|  |--3--|  |--3--|
   E  E  E  E  E  E  E  E  E  E  E  E    E  E  E  E  E  E  E  E  E  E  E  E
|-19-15-17-19-17-15-19-15-17-19-17-15-|-19-15-17-19-17-15-19-15-17-19-17-15-|
|-------------------------------------|-------------------------------------|
|-------------------------------------|-------------------------------------|
|-------------------------------------|-------------------------------------|
|-------------------------------------|-------------------------------------|
|-------------------------------------|-------------------------------------|


   |--3--|  |--3--|  |--3--|  |--3--|    |--3--|  |--3--|  |--3--|  |--3--|
   E  E  E  E  E  E  E  E  E  E  E  E    E  E  E  E  E  E  E  E  E  E  E  E
|-19-15-17-19-17-15-19-15-17-19-17-15-|-19-15-17-19-17-15-19-15-17-19-17-15-|
|-------------------------------------|-------------------------------------|
|-------------------------------------|-------------------------------------|
|-------------------------------------|-------------------------------------|
|-------------------------------------|-------------------------------------|
|-------------------------------------|-------------------------------------|


   |--3--|  |--3--|  |--3--|  |--3--|    |--3--|  |--3--|  |--3--|  |--3--|
   E  E  E  E  E  E  E  E  E  E  E  E    E  E  E  E  E  E  E  E  E  E  E  E
|-------------------------------------|-------------------------------------|
|-17-13-15-17-15-13-17-13-15-17-15-17-|-17-13-15-17-15-13-17-13-15-17-15-17-|
|-------------------------------------|-------------------------------------|
|-------------------------------------|-------------------------------------|
|-------------------------------------|-------------------------------------|
|-------------------------------------|-------------------------------------|


   |--3--|  |--3--|  |--3--|  |--3--|    |--3--|  |--3--|  |--3--|  |--3--|
   E  E  E  E  E  E  E  E  E  E  E  E    E  E  E  E  E  E  E  E  E  E  E  E
|-------------------------------------|-------------------------------------|
|-17-13-15-17-15-13-17-13-15-17-15-17-|-17-13-15-17-15-13-17-13-15-17-15-17-|
|-------------------------------------|-------------------------------------|
|-------------------------------------|-------------------------------------|
|-------------------------------------|-------------------------------------|
|-------------------------------------|-------------------------------------|


   |--3--|  |--3--|  |--3--|  |--3--|    |--3--|  |--3--|  |--3--|  |--3--|
   E  E  E  E  E  E  E  E  E  E  E  E    E  E  E  E  E  E  E  E  E  E  E  E
|-17-13-15-17-15-13-17-13-15-17-15-13-|-17-13-15-17-15-13-17-13-15-17-15-13-|
|-------------------------------------|-------------------------------------|
|-------------------------------------|-------------------------------------|
|-------------------------------------|-------------------------------------|
|-------------------------------------|-------------------------------------|
|-------------------------------------|-------------------------------------|


   |--3--|  |--3--|  |--3--|  |--3--|    |--3--|  |--3--|  |--3--|  |--3--|
   E  E  E  E  E  E  E  E  E  E  E  E    E  E  E  E  E  E  E  E  E  E  E  E
|-17-13-15-17-15-13-17-13-15-17-15-13-|-17-13-15-17-15-13-17-13-15-17-15-13-|
|-------------------------------------|-------------------------------------|
|-------------------------------------|-------------------------------------|
|-------------------------------------|-------------------------------------|
|-------------------------------------|-------------------------------------|
|-------------------------------------|-------------------------------------|


   |--3--|  |--3--|  |--3--|  |--3--|    |--3--|  |--3--|  |--3--|  |--3--|
   E  E  E  E  E  E  E  E  E  E  E  E    E  E  E  E  E  E  E  E  E  E  E  E
|-------------------------------------|-------------------------------------|
|-15-12-13-15-13-12-15-12-13-15-13-12-|-15-12-13-15-13-12-15-12-13-15-13-12-|
|-------------------------------------|-------------------------------------|
|-------------------------------------|-------------------------------------|
|-------------------------------------|-------------------------------------|
|-------------------------------------|-------------------------------------|


                                       Breakdown
                                         ~~
   |--3--|  |--3--|  |--3--|  |--3--|
   E  E  E  E  E  E  E  E  E  E  E  E    W
|-17-16-13-12-17-16-13-12-17-16-13-12-|-12----|
|-------------------------------------|-------|
|-------------------------------------|-------|
|-------------------------------------|-------|
|-------------------------------------|-------|
|-------------------------------------|-------|


   |--3--|  |--3--|  |--3--|  |--3--|    |--3--|  |--3--|  |--3--|  |--3--|
   E  E  E  E  E  E  E  E  E  E  E  E    E  E  E  E  E  E  E  E  E  E  E  E
|-17p12----------12-17p12----------12-|-17p12----------12-17p12----------12h=|
|-------13----13----------13----13----|-------13----13----------13----13-----|
|----------14----------------14-------|----------14----------------14--------|
|-------------------------------------|--------------------------------------|
|-------------------------------------|--------------------------------------|
|-------------------------------------|--------------------------------------|


                           Outro
                     ~~
   |--3--|  |--3--|
   E  E  E  E  E  E  H       W           W           +H      H
|-17----------12-17-19----|-19--------|-19--------|-(19)----19----|
|----13----13-------------|-----------|-----------|---------------|
|-------14----------------|-----------|-----------|---------------|
|-------------------------|-----------|-----------|---------------|
|-------------------------|-----------|-----------|---------------|
|-------------------------|-----------|-----------|---------------|


   H     H       +W            H     H       W
|-17----16----|-(16)--------|-14----16----|-17----|
|-------------|-------------|-------------|-------|
|-------------|-------------|-------------|-------|
|-------------|-------------|-------------|-------|
|-------------|-------------|-------------|-------|
|-------------|-------------|-------------|-------|


   H     H       H     H      H     H      H    H
|-12----13----|-10----12----|-8----10----|-7----8----|
|-------------|-------------|------------|-----------|
|-------------|-------------|------------|-----------|
|-------------|-------------|------------|-----------|
|-------------|-------------|------------|-----------|
|-------------|-------------|------------|-----------|


  H    H      W          W          +W
|-5----7----|-4--------|-5--------|-(5)----|
|-----------|----------|----------|--------|
|-----------|----------|----------|--------|
|-----------|----------|----------|--------|
|-----------|----------|----------|--------|
|-----------|----------|----------|--------|


  +W           +W
|-(5)--------|-(5)----*|
|------------|--------*|
|------------|--------*|
|------------|--------*|
|------------|--------*|
|------------|--------*|



Duration Legend
---------------
W - whole; H - half; Q - quarter; E - 8th; S - 16th; T - 32nd; X - 64th; a - acciaccatura
+ - note tied to previous; . - note dotted; .. - note double dotted
Uncapitalized letters represent notes that are staccato (1/2 duration)
Irregular groupings are notated above the duration line
Duration letters will always appear directly above the note/fret number it represents the
duration for.  Duration letters with no fret number below them represent rests.  Multi-
bar rests are notated in the form Wxn, where n is the number of bars to rest for.  Low
melody durations appear below the staff

Tablature Legend
----------------
 h   - hammer-on
 p   - pull-off
 b   - bend
 pb  - pre-bend
 r   - bend release (if no number after the r, then release immediately)
 /\  - slide into or out of (from/to "nowhere")
 s   - legato slide
 S   - shift slide
 - natural harmonic
[n]  - artificial harmonic
n(n) - tapped harmonic
 ~   - vibrato
 tr  - trill
 T   - tap
 TP  - trem. picking
 PM  - palm muting
\n/  - tremolo bar dip; n = amount to dip
 \n  - tremolo bar down
 n/  - tremolo bar up
/n\  - tremolo bar inverted dip
 =   - hold bend; also acts as connecting device for hammers/pulls
 <> - volume swell (louder/softer)
 x   - on rhythm slash represents muted slash
 o   - on rhythm slash represents single note slash

Misc Legend
-----------
 |  - bar
||  - double bar
||o - repeat start
o|| - repeat end
*|  - double bar (ending)
 :  - bar (freetime)
 $  - Segno
 &  - Coda
Tempo markers -  = BPM(8/16=s8/s16), where s8 = swing 8ths, s16 = swing 16ths





Comments


Popular Rata Blanca tabs & chords
Mujer Amante 2 Bass Tabs
Agord, La Bruja Tabs
Aria En Sol De La Suite 13 Tabs
El Beso De La Bruja Tabs
El SueñO De La Gitana Tabs
Lluvia Purpura Tabs
Noche Sin Sueos Tabs
Por Que Es Tan Dificil Amar Tabs
Volviendo A Casa Tabs
Aun Estas En Mis Suenos Ukulele


Song lyrics



↑ Back to top | Tablatures and chords are parodies/interpretations of the original songs. You may use it for private study, scholarship, research or language learning purposes only
© 2014 AZChords.com Contact us | Privacy policy | DMCA | Add/correct tabs | Request tabs | Top 50 tabs