>
 >
Preludio Obsesivo

Preludio Obsesivo Guitar Tabs

Rata Blanca - Preludio Obsesivo chords, tabs, tablatures, lyrics

Guitar lessons | Add/correct | Request | Top 50 tabs Artists:  A B C D E F G H I J K L M N O P Q R S T U V W X Y Z 0-9

Preludio Obsesivo Guitar Tabs – Rata Blanca

CD, Sheet music, Poster

Do you like Preludio Obsesivo? Share with your friends now
TabsTabs v2
Am. Sweep Picking
e |---------------------12-17^12----------------+-----------------|
B |------------------13----------13-------------+--------------13-|
G |---------------14----------------14----------+-----------14----|
D |------------14----------------------14-------+--------14-------|
A |--/12-12^15----------------------------15-12-+--12^15----------|
E |---------------------------------------------+-----------------|


e |-12-17^12------------|
B |----------13---------|
G |-------------14------|
D |---------------14----|
A |------------------15-|
E |---------------------|



e |-----------------12-17^12-19/(20)\19^17-17------|
B |--------------13----------------------------13--|
G |-----------14-------------------------------14--|
D |--------14----------------------------------14--|
A |--12^15-------------------------------------12--|
E |------------------------------------------------|


e |------------------------------------10--------------|
B |----------------10-9-10-------12-12----12-10-9-10---|
G |------------9-9---------13-13-----------------------|
D |---------10-----------------------------------------|
A |--/12-12--------------------------------------------|
E |----------------------------------------------------|

e |--------------------------------10-12------------|
B |------------10-9-10-------12-12-------12-10-9-10-|
G |-------9-9---------13-13-------------------------|
D |----10-------------------------------------------|
A |-12----------------------------------------------|
E |-------------------------------------------------|


e |----------------17-21^17----------------------------|
B |-------17-17-20---------17-------------17-----17-18-|
G |-18-18---------------------18-18-/19-19---19--------|
D |----------------------------------------------------|
A |----------------------------------------------------|
E |----------------------------------------------------|

e |-----------15-19^15-------+-------------------------|
B |-----15-18----------18----+------------15----15-17--|
G |--16-------------------16-+--16-/17-17----17--------|
D |--------------------------+-------------------------|
A |--------------------------+-------------------------|
E |--------------------------+-------------------------|

e |------------17-------------+-------------------|
B |---------18----18----15----+---------13----13--|
G |--/15-15----------17----14-+--/15-15----15--15-|
D |---------------------------+-------------------|
A |---------------------------+-------------------|
E |---------------------------+-------------------|

e |-17-16-------16-17-----16-17-16-------21/(23)-16/(17)\16-|
B |-------18-17-----18-17----------18-17--------------------|
G |---------------------------------------------------------|
D |---------------------------------------------------------|
A |---------------------------------------------------------|
E |---------------------------------------------------------|


e |--16-17-16--13-12-------------------------------------------|
B |------------------15-13-12----------------------------------|
G |---------------------------14-12----------------------------|
D |---------------------------------14-------------------------|
A |------------------------------------12/11---11^12-14-11-12--|
E |------------------------------------------0-----------------|


e |--8^5---5--8^5---5---12^8----8--12^8----8---13^10----|
B |------5--------5----------10---------10-----------12-|
G |-----------------------------------------------------|
D |-----------------------------------------------------|
A |-----------------------------------------------------|
E |-----------------------------------------------------|

e |-10--13^10----10---10^7---7--10^7---7--|
B |-----------12-----------9---------9----|
G |---------------------------------------|
D |---------------------------------------|
A |---------------------------------------|
E |---------------------------------------|



e |--8^5---5--8^5---5---12^8----8--12^8----8--|
B |------5--------5----------10---------10----|
G |-------------------------------------------|
D |-------------------------------------------|
A |-------------------------------------------|
E |-------------------------------------------|

e |-13^10----10--13^10----10---10^7---7--10^7---7--|
B |-------12-----------12-----------9---------9----|
G |------------------------------------------------|
D |------------------------------------------------|
A |------------------------------------------------|
E |------------------------------------------------|


e |--12^9----9--12^9----9---15^12----12--15^12----12-|
B |-------10---------10-----------14-----------14----|
G |--------------------------------------------------|
D |--------------------------------------------------|
A |--------------------------------------------------|
E |--------------------------------------------------|


e |--13^10----10--13^10----10---17^13-----17^13----13--|
B |--------10-----------10------------15--------15-----|
G |----------------------------------------------------|
D |----------------------------------------------------|
A |----------------------------------------------------|
E |----------------------------------------------------|


e |--10^7---7--10^7---7---13^10----10--13^10----10---12^8-|
B |-------8---------8-----------12-----------12-----------|
G |-------------------------------------------------------|
D |-------------------------------------------------------|
A |-------------------------------------------------------|
E |-------------------------------------------------------|

e |--8--12^8---8--+--8^5---5--8^5---5---12^8----8--12^8----8--|
B |8---------8----+------5--------6----------10---------10----|
G |---------------+-------------------------------------------|
D |---------------+-------------------------------------------|
A |---------------+-------------------------------------------|
E |---------------+-------------------------------------------|


e |--13^10----10--13^10----10---16^13----13--16^13----13--|
B |--------12-----------12------------15-----------15-----|
G |-------------------------------------------------------|
D |-------------------------------------------------------|
A |-------------------------------------------------------|
E |-------------------------------------------------------|

e |-19^16----16---16^13----13---13^10----10---10^7---7--|
B |-------18------------15------------12-----------9----|
G |-----------------------------------------------------|
D |-----------------------------------------------------|
A |-----------------------------------------------------|
E |-----------------------------------------------------|



e |--8^5---5--8^5---5---12^8----8--12^8----8---10^7--|
B |------5--------5----------10---------10----------8|
B |--------------------------------------------------|
D |--------------------------------------------------|
A |--------------------------------------------------|
E |--------------------------------------------------|


e |-7-10^7---7---12^8---8--12^8---8---12^9----9-12^9----9--|
B |--------8----------8---------8----------10--------10----|
G |--------------------------------------------------------|
D |--------------------------------------------------------|
A |--------------------------------------------------------|
E |--------------------------------------------------------|



e |--13^10----10--13^10----10---10^7---7--10^7---7--|
B |--------10-----------10-----------8---------8----|
G |-------------------------------------------------|
D |-------------------------------------------------|
A |-------------------------------------------------|
E |-------------------------------------------------|

e |-12^8---8--12^8---8---8^5---5--8^5---5---10^6---6--10^6---6--|
B |------8---------8---------6--------6----------6---------6----|
G |-------------------------------------------------------------|
D |-------------------------------------------------------------|
A |-------------------------------------------------------------|
E |-------------------------------------------------------------|

e |--7^4---4---7^4---4---8^5---5--8^5---5--8^5---5--8^5-|
B |------6---------6---------5--------5--------5--------|
G |-----------------------------------------------------|
D |-----------------------------------------------------|
A |-----------------------------------------------------|
E |-----------------------------------------------------|

e |--5--8^5---5--8^5---5--|
B |5--------5--------5----|
G |-----------------------|
D |-----------------------|
A |-----------------------|
E |-----------------------|

e |--8^5---5--8^5---5---11^8----8--11^8----8---14^11----11-|
B |------7--------7----------10---------10-----------13----|
G |--------------------------------------------------------|
D |--------------------------------------------------------|
A |--------------------------------------------------------|
E |--------------------------------------------------------|

e |-14^11----11---17^12----12--17^12----12--|
B |-------13------------13-----------13-----|
G |-----------------------------------------|
D |-----------------------------------------|
A |-----------------------------------------|
E |-----------------------------------------|

e |--16^12----12--16^12----12---15^12----12--15^12----12-|
B |--------12-----------12------------14-----------14----|
G |------------------------------------------------------|
D |------------------------------------------------------|
A |------------------------------------------------------|
E |------------------------------------------------------|

e |-15^12----12--15^12----12--|
B |-------14-----------14-----|
G |---------------------------|
D |---------------------------|
A |---------------------------|
E |---------------------------|


e |--18^15----15--18^15----15--18^15----15--18^15----15-|
B |--------17-----------17-----------17-----------17----|
G |-----------------------------------------------------|
D |-----------------------------------------------------|
A |-----------------------------------------------------|
E |-----------------------------------------------------|

e |-17^13----13--17^13----13--17^13----13--17^13----13--|
B |-------15-----------15-----------15-----------15-----|
G |-----------------------------------------------------|
D |-----------------------------------------------------|
A |-----------------------------------------------------|
E |-----------------------------------------------------|


e |--18^12----12---17^13----13--17^13----13--17^13----13-|
B |--------15------------15-----------15-----------15----|
G |------------------------------------------------------|
D |------------------------------------------------------|
A |------------------------------------------------------|
E |------------------------------------------------------|

e |--12^9----9--12^9----9--12^9----9--12^9----9--|
B |-------11---------11---------11---------11----|
G |----------------------------------------------|
D |----------------------------------------------|
A |----------------------------------------------|
E |----------------------------------------------|


e |--15^12----12--15^12----12--15^12----12--15^12----12-|
B |--------14-----------14-----------14-----------14----|
G |-----------------------------------------------------|
D |-----------------------------------------------------|
A |-----------------------------------------------------|
E |-----------------------------------------------------|

e |--13^10----10--13^10----10--13^10----10--13^10-----|
B |--------10-----------10-----------10-----------10--|
G |---------------------------------------------------|
D |---------------------------------------------------|
A |---------------------------------------------------|
E |---------------------------------------------------|


e |--13^10----10-13^10----10-13^10----10-13^10----10--|
B |--------12----------12----------12----------12-----|
G |---------------------------------------------------|
D |---------------------------------------------------|
A |---------------------------------------------------|
E |---------------------------------------------------|


e |-10^7---7--10^7---7--10^7---9--10^7---9--|
B |------9---------9---------9---------9----|
G |-----------------------------------------|
D |-----------------------------------------|
A |-----------------------------------------|
E |-----------------------------------------|



e |--17^12----12--17^12----12--17^12----12--17^12----12-|
B |--------13-----------13-----------13-----------13----|
G |-----------------------------------------------------|
D |-----------------------------------------------------|
A |-----------------------------------------------------|
E |-----------------------------------------------------|


e |--20^17----17--20^17----17--|
B |--------19-----------19-----|
G |----------------------------|
D |----------------------------|
A |----------------------------|
E |----------------------------|


e |--17^14----14--17^14----14---14^11----11--14^11----11-|
B |--------16-----------16------------13-----------13----|
G |------------------------------------------------------|
D |------------------------------------------------------|
A |------------------------------------------------------|
E |------------------------------------------------------|


e |--11^8----8--11^8----8--|
B |-------10---------10----|
G |------------------------|
D |------------------------|
A |------------------------|
E |------------------------|


e |--0-0-0-0-12-0-0-12-0-0-10-0-0-8-0-0-12-0-0-10-0-0-8-|
B |-----------------------------------------------------|
G |-----------------------------------------------------|
D |-----------------------------------------------------|
A |-----------------------------------------------------|
E |-----------------------------------------------------|

e |-0-0-7-0-0-10-0-0-8-0-0-7-0-5-0-0-8-0-0-7-0-0-5-0-0-4--|
B |-------------------------------------------------------|
G |-------------------------------------------------------|
D |-------------------------------------------------------|
A |-------------------------------------------------------|
E |-------------------------------------------------------|


e |--4-5-7--4-5-7-9--5-7-8-/10-7-8-10-/12-8-10-12-/13-12-10-|
B |---------------------------------------------------------|
G |---------------------------------------------------------|
D |---------------------------------------------------------|
A |---------------------------------------------------------|
E |---------------------------------------------------------|

e |----------------------------|
B |13-9-10-12-9-10-------------|
G |----------------9-10--------|
D |---------------------12-----|
A |------------------------11--|
E |----------------------------|


e |-------------+--16^12----12--16^12----12--16^12----12-|
B |----------15-+--------15-----------15-----------15----|
G |--15--15--14-+----------------------------------------|
D |--14--14--14-+----------------------------------------|
A |--14--14---2-+----------------------------------------|
E |--12--12-----+----------------------------------------|

e |--13^12----12---16^12----12--16^12----12---20^17----17-|
B |--------15------------16-----------16------------17----|
G |-------------------------------------------------------|
D |-------------------------------------------------------|
A |-------------------------------------------------------|
E |-------------------------------------------------------|


e |--17^12----12---12^8----8---8^5---5--8^5---5---12^8----8--12/17--|
B |--------13-----------10---------6--------6----------10-----------|
G |-----------------------------------------------------------------|
D |-----------------------------------------------------------------|
A |-----------------------------------------------------------------|
E |-----------------------------------------------------------------|





Comments


Popular Rata Blanca tabs & chords
Mujer Amante Chords
Aria En Sol De La Suite 13 Tabs
Cuando La Luz Oscurece Tabs
El Sueno De La Gitana Tabs
Ella 1 Tabs
La Cancion Del Guerrero Tabs
Lluvia Purpura Tabs
Mujer Amante 5 Tabs
Por Que Es Tan Dificil Amar Tabs
Aun Estas En Mis Suieos Ukulele


Song lyrics



↑ Back to top | Tablatures and chords are parodies/interpretations of the original songs. You may use it for private study, scholarship, research or language learning purposes only
© 2014 AZChords.com Contact us | Privacy policy | DMCA | Add/correct tabs | Request tabs | Top 50 tabs