» » »

Rasmus, Heartbreaker Tabs (ver.1)

Artists:  A B C D E F G H I J K L M N O P Q R S T U V W X Y Z # 

Heartbreaker Tabs (ver.1)

Rasmus Tabs
 Rating:
3.4/5 (9 votes)
Heartbreaker lessons Tabs too difficult? Try these video lessons and learn fast
                -------------------------------------------------------------------------------
                             Heartbreaker - The Rasmus
-------------------------------------------------------------------------------

Tuning: Standard

(Intro: Em)

Verse: (listen for rhythm): Em;C;Bm;C;D (3x) At the end of 3rd time just play D5 
with distortion instead

Chorus:
e|---------------------------------------------------------------------------|
B|---------------------------------------------------------------------------|
G|-9-9-9-9--5-5-5-5--7-7-7-7--4-4-4-4--5-5-5-5--2-2-2-2--4-4-4-4-4-4-4-4-----|
D|-9-9-9-9--5-5-5-5--7-7-7-7--4-4-4-4--5-5-5-5--2-2-2-2--4-4-4-4-4-4-4-4-----| 2x
A|-7-7-7-7--3-3-3-3--5-5-5-5--2-2-2-2--3-3-3-3--0-0-0-0--2-2-2-2-2-2-2-2-----|
E|---------------------------------------------------------------------------|

There's also a 2nd guitar:
e|-----------------------------------------|
B|-----------------------------------------|
G|-12 (16x)--11 (16x)--12 (16X)--11--9--8--| 2x
D|-----------------------------------------|
A|-----------------------------------------|
E|-----------------------------------------|


Verse: (listen for rhythm): Em:C;Bm;C;D (2x) At the end of 2nd time just play D5 
with distortion instead


Chorus:
e|---------------------------------------------------------------------------|
B|---------------------------------------------------------------------------|
G|-9-9-9-9--5-5-5-5--7-7-7-7--4-4-4-4--5-5-5-5--2-2-2-2--4-4-4-4-4-4-4-4-----|
D|-9-9-9-9--5-5-5-5--7-7-7-7--4-4-4-4--5-5-5-5--2-2-2-2--4-4-4-4-4-4-4-4-----| 2x
A|-7-7-7-7--3-3-3-3--5-5-5-5--2-2-2-2--3-3-3-3--0-0-0-0--2-2-2-2-2-2-2-2-----|
E|---------------------------------------------------------------------------|


Bridge (after second chorus)
e|---------------------------------------------------------------------------|
B|---------------------------------------------------------------------------|
G|-5-5-5-5--------------------7-7-7-7--5--5--5-------------------------------|
D|-5-5-5-5--2-2-2-2--5-5-5-5--7-7-7-7--5--5--5-------------------------------|
A|-3-3-3-3--2-2-2-2--5-5-5-5--5-5-5-5--3--3--3-------------------------------|
E|----------0-0-0-0--3-3-3-3-------------------------------------------------|

During the following part I could just figure out the chords and not the exact picked melody line:

Em;D;C;B 2x Play a B5 instead at the end of the 2nd time:

e|-----------------------------------------------------------------------------|
B|-----------------------------------------------------------------------------|
G|-4-4-4-4--4-4-4-4---4--4-----------------------------------------------------|
D|-4-4-4-4--4-4-4-4---4--4-----------------------------------------------------|
A|-2-2-2-2--2-2-2-2---2--2-----------------------------------------------------|
E|-----------------------------------------------------------------------------|


Chorus & Outro:
e|---------------------------------------------------------------------------|
B|---------------------------------------------------------------------------|
G|-9-9-9-9--5-5-5-5--7-7-7-7--4-4-4-4--5-5-5-5--2-2-2-2--4-4-4-4-4-4-4-4-----|
D|-9-9-9-9--5-5-5-5--7-7-7-7--4-4-4-4--5-5-5-5--2-2-2-2--4-4-4-4-4-4-4-4-----| 4x
A|-7-7-7-7--3-3-3-3--5-5-5-5--2-2-2-2--3-3-3-3--0-0-0-0--2-2-2-2-2-2-2-2-----|
E|---------------------------------------------------------------------------|

At the end of the 4th time the B5 is played in this rhythm again:

e|---------------------------------------------------------------------------|
B|---------------------------------------------------------------------------|
G|-4-4-4-4--4-4-4-4--4-4-----------------------------------------------------|
D|-4-4-4-4--4-4-4-4--4-4-----------------------------------------------------| 2x
A|-2-2-2-2--2-2-2-2--2-2-----------------------------------------------------|
E|---------------------------------------------------------------------------|

Ending:
e|---------------------------------------------------------------------------|
B|---------------------------------------------------------------------------|
G|-9-------------------------------------------------------------------------|
D|-9-------------------------------------------------------------------------|
A|-7-------------------------------------------------------------------------|
E|---------------------------------------------------------------------------|


| /  slide up
| \  slide down
| h  hammer-on
| p  pull-off
| ~  vibrato
| +  harmonic
| x  Mute note
===============================================================================
            
Submit corrections

comments powered by Disqus
↑ Back to top | Rasmus Tabs for Heartbreaker. Lyrics for acoustic guitar and electric guitar. Tablatures and chords are parodies/interpretations of the original songs. You may use it for private study, scholarship, research or language learning purposes only