>
 >
Heartbreaker 1

Heartbreaker 1 Guitar Tabs

Rasmus - Heartbreaker 1 chords, tabs, tablatures, lyrics

Guitar lessons | Add/correct | Request | Top 50 tabs Artists:  A B C D E F G H I J K L M N O P Q R S T U V W X Y Z 0-9

Heartbreaker 1 Guitar Tabs – Rasmus

CD, Sheet music, Poster

Do you like Heartbreaker 1? Share with your friends now
Bass TabsChordsTabsTabs v2Ukulele
Artist : The Rasmus
Song : Heartbreaker
Album : Into


Very easy and nice song 

Intro (soft distortion)
E|----------------------------------|
B|----------------------------------|
G|----------------------------------|x4
D|----------------------------------|
A|----------------------------------|
E|---10-12-12-10-12-12--10-12-------|


Verse (all the verse)

E|----------------------------------|
B|----------------------------------|
G|----------------------------------|x14
D|----------------------------------|
A|----------------------------------|
E|---10-12-12-10-12-12--10-12-------|
Well anyway itīs a long story.....

Prechorus

E|-----------------------------------|
B|-----------------------------------|
G|-----------7~--------7-7-7---------|x4
D|-----------7~--------7-7-7---------|
A|-----------5~--------5-5-5---------|
E|-----------------------------------|
Such a typical reaction

Chorus


E|----------------------------------------------|
B|----------------------------------------------|
G|-7-7-7-7-7---5-5-5-5-5------------------------|
D|-7-7-7-7-7---5-5-5-5-5---7-7-7-7-7-5-5-5-5-5--|
A|-5-5-5-5-5---3-3-3-3-3---7-7-7-7-7-5-5-5-5-5--|
E|-------------------------5-5-5-5-5-3-3-3-3-3--|
Oh yeah, oh yeah. She wanted to be a heartbreaker


E|----------------------------------------------|
B|----------------------------------------------|
G|-7-7-7-7-7---5-5-5-5-5------------------------|
D|-7-7-7-7-7---5-5-5-5-5---4-4-4-4-4-4-4-4-4-4--|
A|-5-5-5-5-5---3-3-3-3-3---4-4-4-4-4-4-4-4-4-4--|
E|-------------------------2-2-2-2-2-2-2-2-2-2--|
Oh yeah. She was so greedy but a lousy lovemaker


E|----------------------------------------------|
B|----------------------------------------------|
G|-7-7-7-7-7---5-5-5-5-5------------------------|
D|-7-7-7-7-7---5-5-5-5-5---7-7-7-7-7-5-5-5-5-5--|
A|-5-5-5-5-5---3-3-3-3-3---7-7-7-7-7-5-5-5-5-5--|
E|-------------------------5-5-5-5-5-3-3-3-3-3--|
Oh yeah, oh yeah. She wanted to be a heartbreaker

E|----------------------------------------------|
B|----------------------------------------------|
G|-7-7-7-7-7---5-5-5-5-5------------------------|
D|-7-7-7-7-7---5-5-5-5-5---4-4-4-4-4-4-4-4-4-4--|
A|-5-5-5-5-5---3-3-3-3-3---4-4-4-4-4-4-4-4-4-4--|
E|-------------------------2-2-2-2-2-2-2-2-2-2--|
Oh yeah yehhhhhh yehhhhh...


Verse 2 (all the verse)

E|----------------------------------|
B|----------------------------------|
G|----------------------------------|x14
D|----------------------------------|
A|----------------------------------|
E|---10-12-12-10-12-12--10-12-------|
She used to be the queen of the scene...

Prechorus

E|----------------------------------------------------------------|
B|----------------------------------------------------------------|
G|-----------7~~~~~-----------------------------------------------|
D|-----------7~~~~~-----------------------------------4-4-4-4-4-2-|
A|-----------5~~~~~-----------------------------------4-4-4-4-4-2-|
E|----------------------------------------------------2-2-2-2-2-0-|
But she doesnīt have a clue yet...she doesnt have a clue yet

Chorus


E|----------------------------------------------|
B|----------------------------------------------|
G|-7-7-7-7-7---5-5-5-5-5------------------------|
D|-7-7-7-7-7---5-5-5-5-5---7-7-7-7-7-5-5-5-5-5--|
A|-5-5-5-5-5---3-3-3-3-3---7-7-7-7-7-5-5-5-5-5--|
E|-------------------------5-5-5-5-5-3-3-3-3-3--|
Oh yeah, oh yeah. She wanted to be a heartbreaker


E|----------------------------------------------|
B|----------------------------------------------|
G|-7-7-7-7-7---5-5-5-5-5------------------------|
D|-7-7-7-7-7---5-5-5-5-5---4-4-4-4-4-4-4-4-4-4--|
A|-5-5-5-5-5---3-3-3-3-3---4-4-4-4-4-4-4-4-4-4--|
E|-------------------------2-2-2-2-2-2-2-2-2-2--|
Oh yeah. She was so greedy but a lousy lovemaker


E|----------------------------------------------|
B|----------------------------------------------|
G|-7-7-7-7-7---5-5-5-5-5------------------------|
D|-7-7-7-7-7---5-5-5-5-5---7-7-7-7-7-5-5-5-5-5--|
A|-5-5-5-5-5---3-3-3-3-3---7-7-7-7-7-5-5-5-5-5--|
E|-------------------------5-5-5-5-5-3-3-3-3-3--|
Oh yeah, oh yeah. She wanted to be a heartbreaker

E|----------------------------------------------|
B|----------------------------------------------|
G|-7-7-7-7-7---5-5-5-5-5------------------------|
D|-7-7-7-7-7---5-5-5-5-5---4-4-4-4-4-4-4-4-4-4--|
A|-5-5-5-5-5---3-3-3-3-3---4-4-4-4-4-4-4-4-4-4--|
E|-------------------------2-2-2-2-2-2-2-2-2-2--|
Oh yeah yehhhhhh yehhhhh...

Bridge


E|-------------|
B|-------------|
G|-7-7-7-7-7---|
D|-7-7-7-7-7---|x10
A|-5-5-5-5-5---|
E|-------------|
Striking her down.....

E|---------|
B|---------|
G|---------|
D|-7-5-7~--|
A|-7-5-7~--|
E|-5-3-5~--|
Crushing her to the ground

E|----------------------------------------------|
B|----------------------------------------------|
G|-7-7-7-7-7---5-5-5-5-5------------------------|
D|-7-7-7-7-7---5-5-5-5-5---7-7-7-7-7-5-5-5-5-5--|X2
A|-5-5-5-5-5---3-3-3-3-3---7-7-7-7-7-5-5-5-5-5--|
E|-------------------------5-5-5-5-5-3-3-3-3-3--|
......................P.M........................
Heartbreaker...Heartbreaker...

After bridge

E|-----------|
B|-----------|
G|-----------|
D|-4-4-4-4---|x3
A|-4-4-4-4---|
E|-2-2-2-2---|

Chorus


E|----------------------------------------------|
B|----------------------------------------------|
G|-7-7-7-7-7---5-5-5-5-5------------------------|
D|-7-7-7-7-7---5-5-5-5-5---7-7-7-7-7-5-5-5-5-5--|
A|-5-5-5-5-5---3-3-3-3-3---7-7-7-7-7-5-5-5-5-5--|
E|-------------------------5-5-5-5-5-3-3-3-3-3--|
Oh yeah, oh yeah. She wanted to be a heartbreaker


E|----------------------------------------------|
B|----------------------------------------------|
G|-7-7-7-7-7---5-5-5-5-5------------------------|
D|-7-7-7-7-7---5-5-5-5-5---4-4-4-4-4-4-4-4-4-4--|
A|-5-5-5-5-5---3-3-3-3-3---4-4-4-4-4-4-4-4-4-4--|
E|-------------------------2-2-2-2-2-2-2-2-2-2--|
Oh yeah. She was so greedy but a lousy lovemaker


E|----------------------------------------------|
B|----------------------------------------------|
G|-7-7-7-7-7---5-5-5-5-5------------------------|
D|-7-7-7-7-7---5-5-5-5-5---7-7-7-7-7-5-5-5-5-5--|
A|-5-5-5-5-5---3-3-3-3-3---7-7-7-7-7-5-5-5-5-5--|
E|-------------------------5-5-5-5-5-3-3-3-3-3--|
Oh yeah, oh yeah. She wanted to be a heartbreaker

E|----------------------------------------------|
B|----------------------------------------------|
G|-7-7-7-7-7---5-5-5-5-5------------------------|
D|-7-7-7-7-7---5-5-5-5-5---4-4-4-4-4-4-4-4-4-4--|
A|-5-5-5-5-5---3-3-3-3-3---4-4-4-4-4-4-4-4-4-4--|
E|-------------------------2-2-2-2-2-2-2-2-2-2--|
Oh yeah yehhhhhh yehhhhh...

E|----------------------------------------------|
B|----------------------------------------------|
G|-7-7-7-7-7---5-5-5-5-5------------------------|
D|-7-7-7-7-7---5-5-5-5-5---7-7-7-7-7-5-5-5-5-5--|
A|-5-5-5-5-5---3-3-3-3-3---7-7-7-7-7-5-5-5-5-5--|
E|-------------------------5-5-5-5-5-3-3-3-3-3--|
Well anyway itīs a long story. Heartbreaker......

E|----------------------------------------------|
B|----------------------------------------------|
G|-7-7-7-7-7---5-5-5-5-5------------------------|
D|-7-7-7-7-7---5-5-5-5-5---4-4-4-4-4-4-4-4-4-4--|
A|-5-5-5-5-5---3-3-3-3-3---4-4-4-4-4-4-4-4-4-4--|
E|-------------------------2-2-2-2-2-2-2-2-2-2--|
Heartbreaker...

E|----------------------------------------------|
B|----------------------------------------------|
G|-7-7-7-7-7---5-5-5-5-5------------------------|
D|-7-7-7-7-7---5-5-5-5-5---7-7-7-7-7-5-5-5-5-5--|
A|-5-5-5-5-5---3-3-3-3-3---7-7-7-7-7-5-5-5-5-5--|
E|-------------------------5-5-5-5-5-3-3-3-3-3--|
Heartbreaker....

E|----------------------------------------------|
B|----------------------------------------------|
G|-7-7-7-7-7---5-5-5-5-5------------------------|
D|-7-7-7-7-7---5-5-5-5-5---4-4-4-4-4-4-4-4-4-4--|
A|-5-5-5-5-5---3-3-3-3-3---4-4-4-4-4-4-4-4-4-4--|
E|-------------------------2-2-2-2-2-2-2-2-2-2--|
Heartbreaker....

End

E|------|
B|------|
G|------|
D|- 2~--|
A|--2~--|
E|--0~--|

Easy! Please reate!





Comments


Popular Rasmus tabs & chords
Stranger Chords
Guilty 2 Tabs
If You Ever Tabs
In My Life Tabs
No Fear 2 Tabs
Shot Tabs
Back In The Picture Ukulele
Dangerous Kind Ukulele
Run To You Ukulele
Sophia Ukulele


Song lyrics



↑ Back to top | Tablatures and chords are parodies/interpretations of the original songs. You may use it for private study, scholarship, research or language learning purposes only
© 2014 AZChords.com Contact us | Privacy policy | DMCA | Add/correct tabs | Request tabs | Top 50 tabs