» » »

Rasmus, Guilty Tabs (ver.2)

Artists:  A B C D E F G H I J K L M N O P Q R S T U V W X Y Z # 

Guilty Tabs (ver.2)

Rasmus Tabs
Rating:
3/5 (2 votes)
Guilty lessons Tabs too difficult? Try these video lessons and learn fast
                Artist : The Rasmus
Song : Guilty
Album : Dead Letters

Great guitar riffs...

Intro:
E|--------------------------|
B|--------------------------|
G|-x-x-6/8-8--4--6--3--4--6-|
D|-x-x-6/8-8--4--6--3--4--6-|
A|-x-x-4/6-6--2--4--1--2--4-|x2
E|--------------------------|

Verse:
......................................P.M.......................................
E|--6--------6--------4------------------------6--------6---------4------------|
B|----7--------7--------6-------7-6-4-4----------7--------7---------6----------|
G|------8-8------8-8------6-6------------6-6------8-8------8-8--------6-6--3-4-|
D|-------------------------------------------------------------------------3-4-|
A|-----------------------------------------------------------------------------|x2
E|-----------------------------------------------------------------------------|

Prechorus:
E|-----|
B|-----|
G|-3-4-|
D|-3-4-|
A|-1-2-|x3
E|-----|

Chorus:
E|--------------------------|
B|--------------------------|
G|-x-x-6/8-8--4--6--3--4--6-|
D|-x-x-6/8-8--4--6--3--4--6-|
A|-x-x-4/6-6--2--4--1--2--4-|x2
E|--------------------------|

Verse 2:
......................................P.M.......................................
E|--6--------6--------4------------------------6--------6---------4------------|
B|----7--------7--------6-------7-6-4-4----------7--------7---------6----------|
G|------8-8------8-8------6-6------------6-6------8-8------8-8--------6-6--3-4-|
D|-------------------------------------------------------------------------3-4-|
A|-----------------------------------------------------------------------------|x2
E|-----------------------------------------------------------------------------|

Prechorus:
E|-----|
B|-----|
G|-3-4-|
D|-3-4-|
A|-1-2-|x3
E|-----|

Chorus:
E|--------------------------|
B|--------------------------|
G|-x-x-6/8-8--4--6--3--4--6-|
D|-x-x-6/8-8--4--6--3--4--6-|
A|-x-x-4/6-6--2--4--1--2--4-|x2
E|--------------------------|

Bridge:
E|--------------------------------------------|
B|--------------------------------------------|
G|-4-4-4-4--6-6-6-6-----------3-3-3--4-4--6-6-|
D|-4-4-4-4--6-6-6-6--4-4-4-4--3-3-3--4-4--6-6-|
A|-2-2-2-2--4-4-4-4--4-4-4-4--1-1-1--2-2--4-4-|
E|-------------------2-2-2-2------------------|

Then:
   ....  .....  ....
E|----------------------------------------|
B|----------------------------------------|
G|----------------------------------------|
D|---------------4-6~---8-6-4-------------|
A|--------4-6-8----------------8-6-5------|
E|-4-6-7------------------------------7-6-|

Then: (silently)
.........P.M...........
E|--------------------|
B|--------------------|
G|-8-8--4--6--3--4--6-|
D|-8-8--4--6--3--4--6-|
A|-6-6--2--4--1--2--4-|x4
E|--------------------|

Then:
   ....  .....  ....
E|----------------------------------------|
B|----------------------------------------|
G|----------------------------------------|
D|---------------4-6~---8-6-4-------------|
A|--------4-6-8----------------8-6-5------|
E|-4-6-7------------------------------7-6-|

Chorus:
E|--------------------------|
B|--------------------------|
G|-x-x-6/8-8--4--6--3--4--6-|
D|-x-x-6/8-8--4--6--3--4--6-|
A|-x-x-4/6-6--2--4--1--2--4-|x7
E|--------------------------|

End:
E|----|
B|----|
G|-8~-|
D|-8~-|
A|-6~-|
E|----|


Easy!
PLz Reate!!!
PEACE!!!
            

comments powered by Disqus
↑ Back to top | Rasmus Tabs for Guilty. Lyrics for acoustic guitar and electric guitar. Tablatures and chords are parodies/interpretations of the original songs. You may use it for private study, scholarship, research or language learning purposes only