>
 >
Guilty 2

Guilty 2 Guitar Tabs

Rasmus - Guilty 2 chords, tabs, tablatures, lyrics

Guitar lessons | Add/correct | Request | Top 50 tabs Artists:  A B C D E F G H I J K L M N O P Q R S T U V W X Y Z 0-9

Guilty 2 Guitar Tabs – Rasmus

CD, Sheet music, Poster

Do you like Guilty 2? Share with your friends now
Bass TabsChordsChords v2Chords v3Chords v4TabsTabs v2Tabs v3Tabs v4UkuleleUkulele v2
Band: The Rasmus
Tabbled by ChrisGarMed

These are my first tabs I subit and I think 
there are a 99 percent corrects.

Piano's Intro
e|----------------------------|
b|----------------------------|
g|----------------------8-10--|
D|-----------11-8----11-------|
A|-6---9-8--------------------|
E|----------------------------|

 Chorus
e|---------------------------------------|
b|---------------------------------------|
g|-8-8---8-4-4-4-6-6--3-3---3-4-4-4-6-6--|
D|-8---8---4-4-4-6-6--3---3---4-4-4-6-6--|
A|-6-------2-2-2-4-4--1-------2-2-2-4-4--|
E|---------------------------------------|

e|---------------------------------------|
b|---------------------------------------|
g|-8-8---8-4-4-4-6-6--3-3---3-4-4-4-6----|
D|-8---8---4-4-4-6-6--3---3---4-4-4-6----|
A|-6-------2-2-2-4-4--1-------2-2-2-4----|
E|---------------------------------------|

 Verse 1 & 2
e|---------------------------------|
b|---------------------------------|
g|-3------3------1-----------------|
D|---4-1----4-1----3----3h4-3-1----|
A|-------------------4----------4--|
E|---------------------------------|

e|---------------------------|
b|---------------------------|
g|-3------3------1-----------|
D|---4-1----4-1----3----3-4--|
A|-------------------4--1-2--|
E|---------------------------|
 
e|---------------------------------|
b|---------------------------------|
g|-3------3------1-----------------|
D|---4-1----4-1----3----3h4-3-1----|
A|(6)-----------(9-8)4----------4--|
E|---------------------------------|

e|------------------------------------|
b|------------------------------------|
g|-3------3------1------3-4--3-4--3-4-|
D|---4-1----4-1----3----3-4--3-4--3-4-|
A|(16)---------------4--1-2--1-2--1-2-|
E|------------------------------------|

 Verse 3
e|-------------------------------------------------------------|
b|-------------------------------------------------------------|
g|-4-4-4-4-4-6-6-6-6-6-----------3-3-3-3-3-4-4-4-4-4-6-6-6-6-6-|
D|-4-4-4-4-4-6-6-6-6-6-4-4-4-4-4-3-3-3-3-3-4-4-4-4-4-6-6-6-6-6-|
A|-2-2-2-2-2-4-4-4-4-4-4-4-4-4-4-1-1-1-1-1-2-2-2-2-2-4-4-4-4-4-|
E|---------------------2-2-2-2-2-------------------------------|

 Bridge
e|---------------------------------------|
b|---------------------------------------|
g|---------------------------------------|
D|--------------------8------------------|
A|----8-9-11---8-9-11---11-9-8-9-8-------|
E|-11--------9---------------------11-10-|

 Bridge 2 {Bass part traslated to guitar tabs ["( )"clear(piano)]}
e|----------------------------------------------|
b|----------------------------------------------|
g|----------------------------------------------|
D|----------------------------------------------|
A|-(8-5)6---2-4--1---2-4--(8-5)6---2-4--1---2-4-|
e|--------|---|----|---|---------|---|----------|
          |   |    |   |         |   |       
e|--------|---|----|---|---------|---|----|
b|--------|---|----|---|---------|---|----|
g|--------8---6----4---6---------8---6----|
D|--------8---6----4---6---------8---6----|
A|-(8-5)--6---4----2---4--(8-5)--6---4--1-|
e|----------------------------------------|


Order:
Piano's Intro
Chorus
Verse 1&2
Chorus
Verse 1&2
Chorus
Verse 3
Bridge
Bridge 2
Bridge
Chorus(x3)





Comments


Popular Rasmus tabs & chords
Everyday Intro Bass Tabs
Tonight Tonight Bass Tabs
F-f-f-falling 1 Chords
Ufolaulu Chords
In My Life Tabs
In The Shadow Tabs
Jailer Tabs
Myself 3 Tabs
No Fear 2 Tabs
Days Ukulele


Song lyrics



↑ Back to top | Tablatures and chords are parodies/interpretations of the original songs. You may use it for private study, scholarship, research or language learning purposes only
© 2014 AZChords.com Contact us | Privacy policy | DMCA | Add/correct tabs | Request tabs | Top 50 tabs