» » »

First Day Of My Life Tabs (ver.3)

Artists:  A B C D E F G H I J K L M N O P Q R S T U V W X Y Z # 

First Day Of My Life Tabs (ver.3)

Rasmus
Rating:
0/5 (0 votes)

Tabs too difficult? Try these video lessons and learn fast.
                previous one had some wrong notes, this one is better.

first day of my life.

Drop Db

intro
eb|----------------------|----------------------|----------------------|-------------------|
Gb|----------------------|----------------------|----------------------|-------------------|
Bb|----------------------|----------------------|----------------------|-------------------|
Db|----------------------|----------------------|----------------------|-------------------|
Ab|0-0-8888-10101010-8888|0-0-8888-10101010-8888|8-8-7777-10101010-7777|8-8-7777-10-10-7777|
Db|0-0-------------------|0-0-------------------|8-8-------------------|8-8------10-10-----|2x

verse
eb|----------------|----------------|----------------|----------------|
Gb|----------------|----------------|----------------|----------------|
Bb|----------------|----------------|----------------|----------------|
Db|----------------|----------------|----------------|----------------|
Ab|0-0-0-0-0-0-0-0-|7-7-7-7-7-7-7-7-|5-5-5-5-5-5-5-5-|7-7-7-7-7-7-7-7-|
Db|0-0-0-0-0-0-0-0-|7-7-7-7-7-7-7-7-|5-5-5-5-5-5-5-5-|7-7-7-7-7-7-7-7-|

pre-chorus
eb|----------------|----------------|----------------|----------------|
Gb|----------------|----------------|----------------|----------------|
Bb|----------------|----------------|----------------|----------------|
Db|----------------|----------------|----------------|----------------|
Ab|0-0-0-0-0-0-0-0-|7-7-7-7-7-7-7-7-|5-5-5-5-5-5-5-5-|7-7-7-7-7-7--8-4|
Db|0-0-0-0-0-0-0-0-|7-7-7-7-7-7-7-7-|5-5-5-5-5-5-5-5-|7-7-7-7-7-7--8-4|
                                                   pm|. . . . .  
chorus
eb|----------------|----------------|----------------|----------------|----------------|
Gb|----------------|----------------|----------------|----------------|----------------|
Bb|----------------|----------------|----------------|----------------|----------------|
Db|--------55555999|10101010--------|--------55555999|10101010--------|----------------|
Ab|5555555533333777|8-8-8-8-88888444|5555555533333777|8-8-8-8-88888444|5555555577553322|
Db|55555555--------|--------88888444|55555555--------|--------88888444|5555555577553322|

intro 1x
verse
pre-chorus	|6-6-6-6-6-6-----|
		|6-6-6-6-6-6-----|
	      pm|. . . . .  
chorus
intro 1x
bridge
eb|----------------|----------------|----------------|----------------|
Gb|----------------|----------------|----------------|----------------|
Bb|----------------|----------------|----------------|----------------|
Db|----------------|----------------|----------------|----------------|
Ab|5-------7-------|5-------7-------|5-------7-------|5-------7\------|
Db|5-------7-------|5-------7-------|5-------7-------|5-------7\------|

chorus

outro
eb|----------------|----------------|----------------|----------------|
Gb|----------------|----------------|----------------|----------------|
Bb|----------------|----------------|----------------|----------------|
Db|----------------|----------------|----------------|887755--------55|
Ab|5555555577553322|5555555577553322|5555555577553322|6655338877553333
Db|5555555577553322|5555555577553322|5555555577553322|------88775533--|

intro 1x

Ab|0-0|
Db|0-0|
            
Tabs too difficult? Try these video lessons and learn fast.




comments powered by Disqus
↑ Back to top | Tablatures and chords are parodies/interpretations of the original songs. You may use it for private study, scholarship, research or language learning purposes only