» » »

Rasmus, First Day Of My Life Tabs (ver.1)

Artists:  A B C D E F G H I J K L M N O P Q R S T U V W X Y Z # 

First Day Of My Life Tabs (ver.1)

Rasmus Tabs
 Rating:
4/5 (13 votes)
First Day Of My Life lessons Tabs too difficult? Try these video lessons and learn fast
                Tuning : Drop-D


Intro
e--------------------------------------------------
b--------------------------------------------------
g--------------------------------------------------
d---11-11x---11xx---11-11x------11xx--------------
a---11-11x---11xx---11-11x------11xx---------------
d---11-11x---11xx---11-11x------11xx---------------

e--------------------------------------------------
b--------------------------------------------------
g--------------------------------------------------
d---7-7x---7x-7x-7x--7-7x---7xxxx----9-9x--9xxxx---
a---7-7x---7x-7x-7x--7-7x---7xxxx----9-9x--9xxxx---
d---7-7x---7x-7x-7x--7-7x---7xxxx----9-9x--9xxxx---




Pre-Chorus
e--------------------------------------------------
b--------------------------------------------------
g--------------------------------------------------
d---6x--6x--6x--6x--6-----------7-3----------------
a---6x--6x--6x--6x--6-----------7-3----------------
d---6x--6x--6x--6x--6-----------7-3----------------
yeah, yeah, yeah, yeah yeaaaaaaaaaaaaaah.


e--------------------------------------------------
b--------------------------------------------------
g--------------------------------------------------
d---4-------------------------6----------4-1-------
a---4-------------------------6----------4-1-------
d---4-------------------------6----------4-1-------
          still feels like the first time

e--------------------------------------------------
b--------------------------------------------------
g--------------------------------------------------
d---2----------------------4-------------7-3-------
a---2----------------------4-------------7-3-------
d---2----------------------4-------------7-3-------
          to stand here by your side

e--------------------------------------------------
b--------------------------------------------------
g--------------------------------------------------
d---4----------------------6--------------4-1------
a---4----------------------6--------------4-1------
d---4----------------------6--------------4-1------
          together regardless

e--------------------------------------------------
b--------------------------------------------------
g--------------------------------------------------
d---2----------------------------4--------7-3------
a---2----------------------------4--------7-3------
d---2----------------------------4--------7-3------
          we'll walk through the darkness


e--------------------------------------------------
b--------------------------------------------------
g--------------------------------------------------
d---4--------------------------6----4---2--1-------
a---4--------------------------6----4---2--1-------
d---4--------------------------6----4---2--1-------
         still feels like the first day of my life



Outro
e--------------------------------------------------       Repeat as many times 
b--------------------------------------------------       as they do in the song.
g--------------------------------------------------       And then play the intro,
d--4-------------------------6----4---2--1---------       and then is the song 
a--4-------------------------6----4---2--1---------       finish.
d--4-------------------------6----4---2--1---------
       still feels like the first day of my......


ENJOY!
            
Submit corrections

comments powered by Disqus
↑ Back to top | Rasmus Tabs for First Day Of My Life. Lyrics for acoustic guitar and electric guitar. Tablatures and chords are parodies/interpretations of the original songs. You may use it for private study, scholarship, research or language learning purposes only