» » »

Randy Rogers Band, Lost & Found Tabs (ver.2)

Artists:  A B C D E F G H I J K L M N O P Q R S T U V W X Y Z # 

Lost & Found Tabs (ver.2)

Randy Rogers Band Tabs
Rating:
5/5 (1 vote)
Hard to play? Try these video lessons and learn fast.
                (Intro)
Capo on 2
The timeing isn't perfect but listen to the song and its pretty simple.
These is my first tabs and ther're close to perfect. Enjoy!


e|-----------3---------------0-----------------0------------|
B|-------------3---------------0---0-------1-----1---1------|
G|--------0--------------0-------0-------0---------0-----2--|
D|------0--------------2---2-----------2-----2---------0----|
A|----2--------------2---------------3----------------------|
E|--3------------3-0----------------------------------------|

e|---2-2----------------------------------------------------|
B|-3-----3---3----------------------------------------------|
G|---------2------------------------------------------------|
D|------------------------------------------0---------------|
A|----------------0-2-3-2-0-----0-2-3-2-0-----0-2-3-2-0-----|
E|--------------3-----------3-3-----------3-------------3-0-|

e|----------------------------------------------------------|
B|----------------------------------------------------------|
G|----------------------------------------------------------|
D|----------------------------------------------------------|
A|-0-2-3-2-0------------------------------------------------|
E|-----------3-3--------------------------------------------|
            

comments powered by Disqus
↑ Back to top | Randy Rogers Band Tabs for Lost & Found. Lyrics for acoustic guitar and electric guitar. Tablatures and chords are parodies/interpretations of the original songs. You may use it for private study, scholarship, research or language learning purposes only