» » »

Randy Rogers Band, Lost & Found Chords (ver.1)

Artists:  A B C D E F G H I J K L M N O P Q R S T U V W X Y Z # 

Lost & Found Chords (ver.1)

Randy Rogers Band Tabs
Rating:
0/5 (0 votes)
Lost & Found lessons Tabs too difficult? Try these video lessons and learn fast
                Capo 2nd fret
 
Intro:
G   Em  C  D (x2)

e|----------------------------------------------------------------|
B|----------------------------------------------------------------|
G|----2h4-5-4-2------2h4-5-4-2-----2h4-5-4-2-----2h4-5-4-2--------|
D|--5-----------5-2------------5-------------5-0-----------5-5----|
A|-------------------------------3--------------------------------|
E|----------------------------------------------------------------|

e|--------------------------------------------------------------|
B|--------------------------------------------------------------|
G|--2h4-5-4-2------2h4-5-4-2-----2h4-5-4-2-----2h4-5-4-2--------|
D|------------5-2------------5-------------5-0-----------5--4--5|
A|-----------------------------3--------------------------------|
E|--------------------------------------------------------------|

Verse 1:
G               D          
Day after day I tell myself  
    C                                  G  D 
You never meant the words that you said 
G                   D 
Night after night I lie here alone 
C                            G  Em7
Can't get you out of my head 
       Em             C 
Like a fool I let our love slip away 
    Em                 C          D 
You left me here, what more can I say 
 

Chorus: 
G                             Em  
I missed my chance I lost my turn 
                           C         
My ship sank I crashed and burned  
                            D   
Broke your heart and then I let myself down 
G                             Em 
I lost the fight I lost the game  
                       C 
Now there's only me to blame 
                      D 
If you wonder where I am 
                        G 
Check the lost and found 
 
G  Em  C  D
 

Verse 2:
G                D
Time after time, I fell short 
C                            G   D 
Of the man you needed me to be 
G                    D
And lie after lie, I left you no choice 
C                                G  Em7
But to pack your clothes and leave 
          Em               C
I've got too much pride to beg you to stay  
   Em             C           D
So before you go just let me say 


Chorus:
G                             Em  
I missed my chance I lost my turn 
                           C         
My ship sank I crashed and burned  
                            D   
Broke your heart and then I let myself down 
G                             Em 
I lost the fight I lost the game  
                       C 
Now there's only me to blame 
                      D 
If you wonder where I am 
                        G 
Check the lost and found 

Outro:
Em                              C         
     My ship sank I crashed and burned  
                            D   
Broke your heart and then I let myself down 
G                             Em 
I lost the fight I lost the game  
                       C 
Now there's only me to blame 
                      D 
If you wonder where I am 
                        G 
Check the lost and found 
Em                     C
   Now if you want to find me
D (Hold)
   Check the lost and found

  
            
Submit corrections

comments powered by Disqus
↑ Back to top | Randy Rogers Band Chords for Lost & Found. Lyrics for acoustic guitar and electric guitar. Tablatures and chords are parodies/interpretations of the original songs. You may use it for private study, scholarship, research or language learning purposes only