>
 >
Dee 2

Dee 2 Guitar Tabs

Randy Rhoads - Dee 2 chords, tabs, tablatures, lyrics

Guitar lessons | Add/correct | Request | Top 50 tabs Artists:  A B C D E F G H I J K L M N O P Q R S T U V W X Y Z 0-9

Dee 2 Guitar Tabs – Randy Rhoads

CD, Sheet music, Poster

Do you like Dee 2? Share with your friends now
TabsTabs v2Tabs v3Tabs v4
|------------------------|7---------------7-------|5-----------------------|
|------------------------|----------7h-8----------|------------------------|
|------------------------|7-------7---------------|------------------------|
|------------------------|------------------------|0-----------------------|
|------------------------|10----------------------|5-----------------------|
|------------------------|------------------------|------------------------|

 |       |       |        |       |       |        |       |       |
|7{----------------------|7-----------7-----------|10----------10----------|
|7{----------------------|--------7-------7-------|--------8-------8-------|
|7{----------------------|----7---------------7---|----7---------------7---|
|7{----------------------|9-----------------------|9-----------------------|
|------------------------|------------------------|------------------------|
|------------------------|------------------------|------------------------|

 |       |       |        |       |       |        |       |       |
|----------------12------|12----------------------|7---------------7-------|
|------------10----------|------------------------|----------7h-8----------|
|--------9---------------|9-----------------------|7-------7---------------|
|9/--11------------------|------------------------|------------------------|
|------------------------|------------------------|10----------------------|
|------------------------|------------------------|------------------------|

 |       |       |        |       |       |        |       |       |
|5-----------------------|3---------------3-------|------------------------|
|------------------------|--------2---------------|7-------5-------3-------|
|------------------------|------------------------|------------------------|
|0-----------------------|2-----------------------|------------------------|
|5-----------------------|------------------------|5-------4-------2-------|
|------------------------|------------------------|------------------------|

 |       |       |        |       |       |        |       |       |
|0---------------0-------|------------------------|------------------------|
|--------0---------------|5p--3p--2-------3-------|3---------------3-------|
|------------------------|------------------------|------------2-------2---|
|------------------------|------------------------|--------0---------------|
|------------------------|0-----------------------|------------------------|
|3-----------------------|------------------------|2-----------------------|

 |       |       |        |       |       |        |       |       |
|0---------------2h3p2p0-|2---------------2-------|----------------0---2---|
|--------3---------------|------------0-------0---|------------------------|
|------------------------|--------2---------------|------------------------|
|------------------------|1-----------------------|------------------------|
|------------------------|------------------------|2-----------------------|
|------------------------|------------------------|----------------3---2---|

 |       |       |        |       |       |        |       |       |
|3-----------------------|3p--2---2p--0-------0---|------------------------|
|------------0-----------|----------------3-------|2---------------3-------|
|--------0-------0-------|------------------------|--------0---------------|
|----2-------------------|------------------------|------------------------|
|------------------------|------------------------|0-----------------------|
|0-----------------------|0-------4---------------|------------------------|

 |       |       |        |       |       |        |       |       |
|12{---------------------|------------------------|--------2---3---5h7p5---|
|12{---------------------|------------------------|--------3---5-----------|
|12{---------------------|--2h4p2p0---------------|------------------------|
|12{---------------------|----------4p2p0---------|0-----------------------|
|------------------------|----------------4p2p0---|------------------------|
|------------------------|------------------------|------------------------|

 |       |       |        |       |       |        |       |       |
|------------0-----------|----2---3---5---7h9p7---|------------------------|
|3---------------3-------|----3---5---7-----------|2---------------3-------|
|--------0---------------|------------------------|--------0---------------|
|----0-------------------|0-----------------------|2-----------------------|
|2-----------------------|------------------------|0-----------------------|
|------------------------|------------------------|------------------------|

 |       |       |        |       |       |        |       |       |
|5p--3---3p--2---2p--0---|2p--0-------0-----------|----0---------------0---|
|------------------------|--------3-------5-------|3-------2p--0---3-------|
|------------------------|------------------------|------------------------|
|0-----------------------|------------------------|------------------------|
|------------------------|4-----------------------|2-----------------------|
|------------------------|------------------------|------------------------|

 |       |       |        |       |       |        |       |       |
|------------------------|------------------------|--------3p------2-------|
|2---------------3-------|3-----------------------|------------------------|
|--------0---------------|--------2---------------|------------------------|
|------------------------|----------------0-------|------------------------|
|0-----------------------|------------------------|------------------------|
|------------------------|2-----------------------|2-------0---------------|

 |       |       |        |       |       |        |       |       |
|2p------0---------------|7---------------7-------|5-----------------------|
|------------------------|----------7h-8----------|------------------------|
|------------------------|7-------7---------------|------------------------|
|------------------------|------------------------|0-----------------------|
|------------------------|10----------------------|5-----------------------|
|4-----------------------|------------------------|------------------------|

 |       |       |        |       |       |        |       |       |
|7{----------------------|7-----------7-----------|10----------10----------|
|7{----------------------|--------7-------7-------|--------8-------8-------|
|7{----------------------|----7---------------7---|----7---------------7---|
|7{----------------------|9-----------------------|9-----------------------|
|------------------------|------------------------|------------------------|
|------------------------|------------------------|------------------------|

 |       |       |        |       |       |        |       |       |
|----------------12------|12----------------------|7---------------7-------|
|------------10----------|------------------------|----------7h-8----------|
|--------9---------------|9-----------------------|7-------7---------------|
|9/--11------------------|------------------------|------------------------|
|------------------------|------------------------|10----------------------|
|------------------------|------------------------|------------------------|

 |       |       |        |       |       |        |       |       |
|5-----------------------|3---------------3-------|------------------------|
|------------------------|--------2---------------|7-------5-------3-------|
|------------------------|------------------------|------------------------|
|0-----------------------|2-----------------------|------------------------|
|5-----------------------|------------------------|5-------4-------2-------|
|------------------------|------------------------|------------------------|

 |       |       |        |       |       |        |       |       |
|0---------------0-------|------------------------|------------------------|
|--------0---------------|5p--3p--2-------3-------|3---------------3-------|
|------------------------|------------------------|------------2-------2---|
|------------------------|------------------------|--------0---------------|
|------------------------|0-----------------------|------------------------|
|3-----------------------|------------------------|2-----------------------|

 |       |       |        |       |       |        |       |       |
|0---------------2h3p2p0-|2---------------2-------|----------------0---2---|
|--------3---------------|------------0-------0---|------------------------|
|------------------------|--------2---------------|------------------------|
|------------------------|1-----------------------|------------------------|
|------------------------|------------------------|2-----------------------|
|------------------------|------------------------|----------------3---2---|

 |       |       |        |       |       |        |       |       |
|3-----------------------|3p--2---2p--0-------0---|------------------------|
|------------0-----------|----------------3-------|2---------------3-------|
|--------0-------0-------|------------------------|--------0---------------|
|----2-------------------|------------------------|------------------------|
|------------------------|------------------------|0-----------------------|
|0-----------------------|0-------4---------------|------------------------|

 |       |       |        |       |       |        |       |       |
|12{---------------------|------------------------|--------2---3---5h7p5---|
|12{---------------------|------------------------|--------3---5-----------|
|12{---------------------|--2h4p2p0---------------|------------------------|
|12{---------------------|----------4p2p0---------|0-----------------------|
|------------------------|----------------4p2p0---|------------------------|
|------------------------|------------------------|------------------------|

 |       |       |        |       |       |        |       |       |
|------------0-----------|----2---3---5---7h9p7---|------------------------|
|3---------------3-------|----3---5---7-----------|2---------------3-------|
|--------0---------------|------------------------|--------0---------------|
|----0-------------------|0-----------------------|2-----------------------|
|2-----------------------|------------------------|0-----------------------|
|------------------------|------------------------|------------------------|

 |       |       |        |       |       |        |       |       |
|5p--3---3p--2---2p--0---|2p--0-------0-----------|----0---------------0---|
|------------------------|--------3-------5-------|3-------2p--0---3-------|
|------------------------|------------------------|------------------------|
|0-----------------------|------------------------|------------------------|
|------------------------|4-----------------------|2-----------------------|
|------------------------|------------------------|------------------------|

 |       |       |        |       |       |        |       |       |
|------------------------|------------------------|--------3p------2-------|
|2---------------3-------|3-----------------------|------------------------|
|--------0---------------|--------2---------------|------------------------|
|------------------------|----------------0-------|------------------------|
|0-----------------------|------------------------|------------------------|
|------------------------|2-----------------------|2-------0---------------|

 |       |       |        |       |       |
|2p------0---------------|7{---------------------||
|------------------------|7{---------------------||
|------------------------|7{---------------------||
|------------------------|7{---------------------||
|------------------------|-----------------------||
|4-----------------------|-----------------------||



******************************************************************************
******************************************************************************

Randy Rhoads "Dee"


This is an interpretation of Dee that I prefer to play, based 
more on the version of studio outtakes Randy plays on the 
"Tribute" album, rather than the "Blizzard of Ozz" version.


Tuning - EADGBE

|-7------------7---5-|-------<7>-------|-7-------7-----10--------10---|
|----------7h8-------|-------<7>-------|-------7----7------8---8----8-|
|--------7---------4-|-------<7>-------|-----7---------------7--------|
|-10---------------0-|-------<7>-------|-9--------------9-------------|
|--------------------|-----------------|------------------------------|
|--------------------|-----------------|------------------------------|

|----------12/11-12----|----7------------7----------|-----------------|
|-------10-------------|-------------7h8-----10-----|-8-----8--7--5--3|
|-----9----------------|-----------7----------------|----6------------|
|-9/11-----------11----|----10----------------9-----|-7--------5--4--2|
|----------------------|----------------------------|-----------------|
|----------------------|----------------------------|-----------------|

|-0-----------------|------------0---0-|-2h3p2p0--2-------2------|
|------55p3--2--3--|-3-----3----------|----------------0---0--0-|
|----4--------------|-----2---2--------|--------------2----------|
|-------------------|---0--------------|----------1--------------|
|--------0----------|------------2-----|-----------------------2-|
|-3-----------------|-2----------------|-------------------------|

|------0--2--3----------|-3p2-2p0----0---------|--<12>-----------|
|----0--------------0---|----------3----2----3-|--<12>-----------|
|-----------------0---0-|------------------0---|--<12>-----------|
|---------------2-------|----------------------|-----------------|
|--2--------------------|---------------0------|-----------------|
|------3--2--0----------|-0---4----------------|-----------------|

|----------------------|-2--35h7p5p0---------0--|--2--3--57h9p7p0---|
|----------------------|-3--5----------3----3----|--3--5--7----------2|
|-2h4p2p0--------------|------------------0------|--------------------|
|---------4p2p0------0-|-------------------------|--------------------|
|--------------4p2p0---|---------------2---------|-------------------0|
|----------------------|-------------------------|--------------------|

|--------0--5p3-3p2-2p0-2p0-|---0---------0---------------|
|------3--------------------|-3----5/3--3---2p0--3h5p3--2-|
|--0------------------------|-----------------------------|
|-----------0---------------|-----------------------------|
|-----------------------4---|-----------2---0-----------0-|
|---------------------------|-----------------------------|

|--------------------|---3p2-----2p0------|-<7>-------------||
|---3--3-------------|--------------------|-<7>-------------||
|-0-------2----------|--------------------|-<7>-------------||
|------------0-------|--------------------|-<7>-------------||
|---------------2----|-----------4--------|-----------------||
|------2-------------|---0----------------|-----------------||





Comments


Popular Randy Rhoads tabs & chords
Band Jamm Tabs
Crazy Train Tabs
Dee 1 Tabs
Dee 3 Tabs
Diary Of A Madman Tabs
Finger Warm-Up Tabs
Good Bye To Romance (Solo) Tabs
Killer Girls Tabs
Mamas Little Angels Intro Tabs
Picking Up The Pieces Tabs


Song lyrics



↑ Back to top | Tablatures and chords are parodies/interpretations of the original songs. You may use it for private study, scholarship, research or language learning purposes only
© 2014 AZChords.com Contact us | Privacy policy | DMCA | Add/correct tabs | Request tabs | Top 50 tabs