» » »

Randy Rhoads, Dee Tabs (ver.1)

Artists:  A B C D E F G H I J K L M N O P Q R S T U V W X Y Z # 

Dee Tabs (ver.1)

Randy Rhoads Tabs
 Rating:
4/5 (8 votes)
Dee lessons Tabs too difficult? Try these video lessons and learn fast
1
                

This is a highly accurate transcription to Dee.  It is very easy to play with fu

ll flowing sound.

-7--------7--5--7^|-7-------7----10-------10--|-----------12-12|--------------|
------7h8-------7^|-----7-----7-------8------8|--------10------|--------------|
----7--------4--7^|---7---7---------7---7-----|------9---------|--------------|
-------------0--7^|-9------------9------------|-9/11----------9|--------------|
-10---------------|---------------------------|----------------|--------------|
------------------|---------------------------|----------------|--------------|
  Use standard tuning. This entire song is play with without a pick.

--7-------7-----|----------------0---0---------|---------0--------------------|
------7h8-----10|---8---8--7-5-3---0---5p3\2-3-|-3---3-----3------------------|
----7-----------|-----6------------------------|-------2----------------------|
----------------|------------------------------|---0--------------------------|
-10------------9|---7------5-4-2-------0-------|------------------------------|
----------------|----------------3-------------|-2----------------------------|
   Try to let as many notes ring throughout as you can.

-2h3p2p0-2-----2----|-0-2-3---------3p2-2p0---0--------12^|-------------------|
-------------0---0-0|-----------0-----------3---2---3-----|-------------------|
-----------2--------|---------0---0---------------0----12^|-------------------|
---------1----------|-------2-----------------------------|-------------------|
-------------------2|---------------------------0---------|-------------------|
--------------------|-3-2-0---------0---4-----------------|-------------------|


-------------------------2-3-5h7p5-------0-----2-3-5-7h9p7--------|-----------|
-------------------------3-5-------3---3---3---3-5-7-------2---3/5|-----------|
-2h4p2p0-----------------------------0-----------------------0----|-----------|
---------h4p2p0--------0---------------------0--------------------|-----------|
----------------h4p2p0-------------2-----------------------0------|-----------|
------------------------------------------------------------------|-----------|
  IMPORTANT****Let the Open "D" ring throughout here and below!!!!

-5p3-3\2-2p0-2p0---0------------------------------3p2-2p0---7^|---------------|
-----------------3---3/5-3-2p0h3/5-2---3-3------------------7^|---------------|
-------------------------------------0-----2----------------7^|---------------|
-0-------------------------------------------0--------------7^|---------------|
-------------4-----------2---------0-----------2--------------|---------------|
-----------------------------------------2--------0---4-------|---------------|
   If this isn't right I'll smash my guitar over my head!
            
Submit corrections

comments powered by Disqus
↑ Back to top | Randy Rhoads Tabs for Dee. Lyrics for acoustic guitar and electric guitar. 1 Tablatures and chords are parodies/interpretations of the original songs. You may use it for private study, scholarship, research or language learning purposes only