>
 >
You've Got A Friend In Me 2

You've Got A Friend In Me 2 Guitar Tabs

Randy Newman - You've Got A Friend In Me 2 chords, tabs, tablatures, lyrics

Guitar lessons | Add/correct | Request | Top 50 tabs Artists:  A B C D E F G H I J K L M N O P Q R S T U V W X Y Z 0-9

You've Got A Friend In Me 2 Guitar Tabs – Randy Newman

CD, Sheet music, Poster

Do you like You've Got A Friend In Me 2? Share with your friends now
ChordsChords v2Chords v3TabsTabs v2Tabs v3

Tuning: Standard



Intro:

           |--3--|                                         
|-------------------0-------|------------------------|----------------------|
|----------1--3--4-------1--|----------4-----3----1--|----------------------|
|-------0-----------1-------|-----2------------------|-----0----------------|
|----2-------------------2--|-----2----4-----3----2--|-----2----4-----3-----|
|-3-------------------------|------------------------|----------6-----5-----|
|---------------------------|------------------------|----------------------|
|                           |                        |                      |
|---------------------------|------------------------|----------------------|
|-------1--------------3----|--------1---------------|-------1-----------0--|
|-------0--------------1----|--------2----------1----|-------0-----------0--|
|---------------------------|------------------------|----------------------|
|-3-------------2-----------|--0---------------------|----------------------|
|---------------------------|-------------4----------|--3----------3--------|



|--0-------------------|----------------------|
|-------1----4---------|--3---------4---------|
|-------0---------4----|-------3---------4----|
|-----------------4----|-------3---------4----|
|----------------------|----------------------|
|----------------------|----------------------|
|                      |                      |
|----------------------|----------------------|
|----------------------|----------------------|
|----------------------|----------------------|
|--2---------1---------|--0---------1---------|
|--3---------2---------|--1---------2---------|
|----------------------|----------------------|


   
Verse:

-------0--------------|-------0---------0----|----------------------|
-------1---------4----|-------1---------1----|-----------------4----|
-------0---------4----|-------0---------0----|-------2---------5----|
-----------------3----|----------------------|-------3---------4----|
--3-------------------|--3-------------------|-------3--------------|
------------3---------|------------3---------|--1---------2---------|

    
----------------------|----------------------|----------------------|
-------5---------5----|-----------------1----|-------3---------1----|
-------5---------5----|-------2---------0----|-------1---------2----|
-------5---------5----|-------3--------------|-------2---------2----|
--3-------------------|-------3---------3----|------------0---------|
------------3---------|--1---------0---------|--0-------------------|

   
----------------------|----------------------|----------------------|
-----------------1----|-------3---------1----|-----------------1----|
-------2---------0----|-------1---------2----|-------2---------0----|
-------3--------------|-------2---------2----|-------3--------------|
-------3---------3----|------------0---------|-------3---------3----|
--1---------0---------|--0-------------------|--1---------0---------|

    
----------0-----------|----------------------|-------0---------0----|
--4--3----1-----------|-------3---------3----|-------1---------2----|
--2--1----2-----------|-------5---------4----|-------0---------0----|
--3--2----2-----------|-------4---------3----|-----------------2----|
----------0-----------|--0----3---------5----|--3---------0---------|
--1--0----------------|------------3---------|----------------------|

   
----------------------|
-------3---------3----|
-------5---------4----|
-------4---------3----|
--0----3---------5----|
------------3---------|


(Repeat Intro)

    
|-------0--------------|-------0---------0----|
|-------1---------4----|-------1---------0----|
|-------0---------4----|-------0---------0----|
|-----------------3----|----------------------|
|--3-------------------|--3-------------------|
|------------3---------|------------3---------|

    
----------------------|----------------------|----------------------|
-----------------4----|-------5---------5----|-----------------1----|
-------2---------5----|-------5---------5----|-------2---------0----|
-------3---------4----|-------5---------5----|-------3--------------|
-------3--------------|--3-------------------|-------3---------3----|
--1---------2---------|------------3---------|--1---------0---------|

   
----------------------|----------------------|----------------------|
-------3---------1----|-----------------1----|-------3---------1----|
-------1---------2----|-------2---------0----|-------1---------2----|
-------2---------2----|-------3--------------|-------2---------2----|
------------0---------|-------3---------3----|------------0---------|
--0-------------------|--1---------0---------|--0-------------------|

    
----------------------|----------0-----------|----------------------|
-----------------1----|--4--3----1-----------|-------3---------3----|
-------2---------0----|--2--1----2-----------|-------5---------4----|
-------3--------------|--3--2----2-----------|-------4---------3----|
-------3---------3----|----------0-----------|--0----3---------5----|
--1---------0---------|--1--0----------------|------------3---------|

    
-------0---------0----|----------------------|-------0--------------|
-------1---------2----|-------3---------3----|-------1---------5----|
-------0---------0----|-------5---------4----|-------0---------3----|
-----------------2----|-------4---------3----|-----------------5----|
--3---------0---------|--0----3---------5----|--3-------------------|
----------------------|------------3---------|------------3---------|

   
----------------------|----------------------|-------5--------------|
----------------------|-------4---------4----|-------5---------4----|
-------2---------2----|-------4---------4----|-------5---------2----|
-------3---------3----|-------4---------4----|-----------------4----|
-------3---------3----|--2---------2---------|--3---------2---------|
--1---------1---------|----------------------|----------------------|

   
-------5---------5----|----------------------|-------1--------------|
-------5---------5----|-------4---------2----|-------0---------4----|
-------5---------5----|-------4---------4----|-------1---------4----|
----------------------|-------4---------2----|--0--------------4----|
--3---------3---------|--2---------4---------|------------6---------|
----------------------|----------------------|----------------------|

      
-------0---------0----|--------1--------------|--------------------|
-------0---------2----|--------3---------3----|--5--------4--------|
-------0---------0----|--------2---------4----|--5--------4--------|
-------2---------2----|--0-----3---------3----|--5--------3--------|
------------0---------|-----------------------|--3-----------------|
--0-------------------|-------------3---------|-----------3--------|

      
--------------------|--------------------|--0--------0--------|
--5--------5--------|-----------4--------|--1--------1--------|
--3--------3--------|--2--------5--------|--0--------0--------|
--5--------5--------|--3--------4--------|--------------------|
--3--------3--------|--3-----------------|--3--------3--------|
--------------------|--1--------2--------|--------------------|

          
--------------------|--0-----------------|-------------------|
-----------4--------|--1--------3--------|--1----------------|
--2--------5--------|--0--------1--------|--2----------------|
--3--------4--------|-----------2--------|--2----------------|
--3-----------------|--3--------2--------|--0----------------|
--1--------2--------|--------------------|-------------------|

   
----------------------|-------0---------0----|----------------------|
-------3---------3----|-------1---------2----|-------3---------3----|
-------5---------4----|-------0---------0----|-------5---------4----|
-------4---------3----|-----------------2----|-------4---------3----|
--0----3---------5----|--3---------0---------|--0----3---------5----|
------------3---------|----------------------|------------3---------|

    
-------0---------0----|----------------------|
-------1---------2----|-------3---------3----|
-------0---------0----|-------5---------4----|
-----------------2----|-------4---------3----|
--3---------0---------|--0----3---------5----|
----------------------|------------3---------|
               

(Repeat Intro)


|--0----------------||
|--1----------------||
|--0----------------||
|--2----------------||
|--3----------------||
|--3----------------||





Comments


Popular Randy Newman tabs & chords
Ghosts Chords
It's Money That Matters Chords
Marie Chords
My Old Kentucky Home Chords
Beehive State Ukulele
Dayton Ohio 1903 Ukulele
Every Time It Rains Ukulele
I Love La Ukulele
I Love To See You Smile Ukulele
Mr President Have Pity On The Working Man Ukulele


Song lyrics



↑ Back to top | Tablatures and chords are parodies/interpretations of the original songs. You may use it for private study, scholarship, research or language learning purposes only
© 2014 AZChords.com Contact us | Privacy policy | DMCA | Add/correct tabs | Request tabs | Top 50 tabs