>
 >
You've Got A Friend In Me 1

You've Got A Friend In Me 1 Guitar Tabs

Randy Newman - You've Got A Friend In Me 1 chords, tabs, tablatures, lyrics

Guitar lessons | Add/correct | Request | Top 50 tabs Artists:  A B C D E F G H I J K L M N O P Q R S T U V W X Y Z 0-9

You've Got A Friend In Me 1 Guitar Tabs – Randy Newman

CD, Sheet music, Poster

Do you like You've Got A Friend In Me 1? Share with your friends now
ChordsChords v2Chords v3TabsTabs v2Tabs v3
 
 
    Intro
E|----------|---------|--------|----------|----------|------------|
B|----------|------7--|--------|----------|----------|------------|
G|-------7--|---9-----|-7------|-10-9---7-|-2/3-2--0-|------------|
d|------7---|--8------|-7-9----|-8------7-|-4/5-4--2-|-4--3--2---3|
A|-----9----|-9-------|--------|--------0-|-0~~-0--0-|-5--4--3--4-|
D|-0--0-----|---------|-9------|-8--------|----------|-0--0--0----|
 
   Verse
E|--------------------|--------------|----------------|-----------|
B|--------------------|--------------|-0-3-0----------|---7---6/7-|
G|-------2----2h4-2---|--------------|-0-0-0-7-4-----|-----------|
d|---2/4--4--3------4-|---4-4--------|-0-0---6--6--7--|---7--6/7-|
A|--------------------|---3-3--------|-------------0--|-----------|
D|-0--------0---------|-0------0h2h4-|-5-5---6--6-----|------0----|
 
E|------------------|----------------------|------------------|
B|--0--------2--3---|--0-------------------|--0--------2--3---|
G|--0--2-----0--4-4-|--0--2----------------|--0--2-----0--4-4-|
d|--0--0-0---2--4---|--0--0-0--4-4-4--2--0-|--0--0-0---2--4---|
A|----------1---2---|----------1-1-2----5--|----------1---2---|
D|-5---4------------|-5---4----------------|-5---4------------|
 
E|-----------------|---------------------------|      |--2----|
B|-3--0--------3---|------0--3--0----3-0---(3)-| 2x   |--1----|
G|-1----2------2-2-|---2-----1----2--2-0-7(2)-|Int   |--2----|
d|-0------3/4--0---|--1------0------------7(0)-| &    |--0----|
A|--------0~-------|-2---------------0-0-9----|Vers. |-------|
D|-2-----------0---|---------2------------0(0)-|      |-------|
 
    Bridge
E|----------------|---------------|-----------|-----------------------|
B|---0-0------2-2-|---------------|-2---------|--------0--------------|
G|---0-0------4-4-|--4--4---2/3/4-|-4--6--6-6-|-4-2--2--------------2-| Back To                  
d|---0-0------3-3-|--4--4---2/3/4-|-3--4--5-6-|-2-2--1---0-2----3/4---|  verse
A|----------4---4-|---------------|-4--6--7-8-|------2-----------0----|    
D|-5---5----------|-0--0---0------|-----------|-4-4------2-----------|     
 
E|--------------------|--------------|----------------|----------|----------------|
B|--------------------|--------------|-0-3------------|---7---6/7|--0-3-0---------|
G|-------2----2h4-2---|--------------|-0-0---7-4-----|----------|--0-0-0---7-7-4-|
d|---2/4-----3------4-|---4-4--------|-0-0---6--6--7--|---7--6/7|--0-0-0---6-6-6-|
A|--------------------|---3-3--------|-------------0--|----------|----------------|
D|-0--------0---------|-0------0h2h4-|-5-5---6--6-----|-0----0---|-5--------6-----|
 
E|----------|
B|-3--3--3--|
G|-2--0--4--|
d|-2--2--4--|
A|-0--1--2--|
D|----------|
 

E|-----------------|---------------------------------12--|---------------|
B|-3--0--------3---|------0--30-3---6/7-6/7------12----|-6/7----6-5--3-|
G|-1----2------2-2-|---2-----1-1-1---------------12------|---------------| Intro
d|-0------3/4--0---|--1------0-0-0---6/7-6/7------------|-6/7--6---5--4-|
A|--------0~-------|-2---------------0~---0~---0---------|-0~------------|
D|-2-----------0---|---------2-2-2-----------------------|-------------0-|
 
Play last segment with:
E|-----------7-|
B|---------7---|
G|-------7-----| End
d|-----4-------|
A|---5---------|
D|-0-----------|





Comments


Popular Randy Newman tabs & chords
Be A Pepper Chords
Davy The Fat Boy Chords
I Want You To Hurt Like I Do Chords
I'll Be Home Chords
Its Money That Matters 1 Chords
Rednecks Chords
Dancing Ukulele
I Think Hes Hiding Ukulele
Political Science Ukulele
The Great Nations Of Europe Ukulele


Song lyrics



↑ Back to top | Tablatures and chords are parodies/interpretations of the original songs. You may use it for private study, scholarship, research or language learning purposes only
© 2014 AZChords.com Contact us | Privacy policy | DMCA | Add/correct tabs | Request tabs | Top 50 tabs