» » »

Randy Newman, We Belong Together Bass tabs (ver.1)

Artists:  A B C D E F G H I J K L M N O P Q R S T U V W X Y Z # 

We Belong Together Bass tabs (ver.1)

Randy Newman Tabs
Rating:
0/5 (0 votes)
We Belong Together lessons Tabs too difficult? Try these video lessons and learn fast
                -----------------------------------------------------------------------------
	           We Belong Together-Randy Newman
-----------------------------------------------------------------------------


Intro (REPEAT 13 times)
G|---4-----6----|-------|
D|------6-----4-|-4--6--|
A|--------------|-------|
E|--------------|-------|


G|-----------------|--------------|----------|--------------|---------------|
D|---4-4--2-2------|--------------|----------|-4-4--2-2-----|---------------|
A|-------------2-2-|4-4-------6-6-|-2-2--4-4-|----------2-2-|-4-4-------6-6-|
E|-----------------|-----6-6------|----------|--------------|-----6-6-------|

G|-------|------|------------|
D|-------|------|------------|
A|-------|------|------------|
E|---4-4-|-4-4--|-4-4--6-8---|


Chorus (REPEAT)

G|-----------------|---------|--------------------|-------------------------|
D|---4-4-----------|-------3-|-4-4--2-2--1-1--0-0-|---------------------3---|
A|--------6-6--2-2-|-4--6----|--------------------|-4-4--6-6-------4-6------|
E|-----------------|---------|--------------------|-----------4-4-----------|

(REPEAT)
G|---4-----6----|-------|
D|------6-----4-|-4--6--|
A|--------------|-------|
E|--------------|-------|

=============================================================================
            

comments powered by Disqus
↑ Back to top | Randy Newman Bass for We Belong Together. Lyrics for acoustic guitar and electric guitar. Tablatures and chords are parodies/interpretations of the original songs. You may use it for private study, scholarship, research or language learning purposes only