» » »

Rancid, 11th Hour Bass tabs (ver.1)

Artists:  A B C D E F G H I J K L M N O P Q R S T U V W X Y Z # 

11th Hour Bass tabs (ver.1)

Rancid Tabs
 Rating:
4/5 (4 votes)
11th Hour lessons Tabs too difficult? Try these video lessons and learn fast
1
                "(2)
Verse: (Repeat 1st sec 4x, then play 2nd, repeat 1st 2 more, then 2nd again) 

G|---------------------------|----------------------|
D|-------------------5-5-5-5-|----------------------|
A|-33---------0-33-3---------|---0-1-0------0-1-0---|
E|-----1-3-1-3---------------|-1-------1-3--------3-|

Chorus: (Repeat 1st section 2x, then 2nd part) 
G|---------------------------|-------------------| 
D|---------------------------|-------------------|
A|-----0-1-0-1-2-3-3-1--0----|-------------------|
E|1-1---------------------3--|-5~-3--3-3-5-3-5-3-| 

Instrumental: 
G:-------------------------------------------| 
D:------333---222----------------------------| 
A:3----------------------0-3-5-5-3-0-3-3-0---| 
E:------------------1--1-------------------3-|

Instrumental continued: 
G:--------------------------------------| 
D:------333---222---3-3-1-1-0-0---------|
A:3-----------------------------3-0-1-2-| 
E:--------------------------------------|
"            
Submit corrections

comments powered by Disqus
↑ Back to top | Rancid Bass for 11th Hour. Lyrics for acoustic guitar and electric guitar. 1 Tablatures and chords are parodies/interpretations of the original songs. You may use it for private study, scholarship, research or language learning purposes only