» » »

Rancid, Something In The World Today Tabs (ver.1)

Artists:  A B C D E F G H I J K L M N O P Q R S T U V W X Y Z # 

Something In The World Today Tabs (ver.1)

Rancid Tabs
 Rating:
4/5 (4 votes)
Something In The World Today lessons Tabs too difficult? Try these video lessons and learn fast
                Intro - pm acourdingly

e|----------------|----------------|----------------|----------------|
B|----------------|----------------|----------------|----------------|
G|-7-7-7-7-7-7-7--|-12-12-12-11-11-|-11-14-14-14-14-|14-14-14--------|
D|-0-0-0-0-0-0-0--|--0--0--0--0--0-|--0--0--0--0--0-|-0--0--0--------|
A|----------------|----------------|----------------|----------------|
E|----------------|----------------|----------------|----------------|  

e|----------------|----------------|
B|----------------|----------------|
G|-12-12-12-14-12-|-11--7----------|
D|--0--0--0--0--0-|--0--0----------|
A|----------------|----------------|
E|----------------|----------------|


Verse 1
e|----------------|----------------|----------------|----------------|
B|----------------|----------------|----------------|----------------|
G|7---7-7-7-7-7-7-|7-7-7-7-7-7-7-7-|----------------|----------------|
D|7---7-7-7-7-7-7-|7-7-7-7-7-7-7-7-|3---3-3-3-3-3-3-|3-3-3-3-3-3-3-3-|
A|5---5-5-5-5-5-5-|5-5-5-5-5-5-5-5-|3---3-3-3-3-3-3-|3-3-3-3-3-3-3-3-|
E|----------------|----------------|1---1-1-1-1-1-1-|1-1-1-1-1-1-1-1-|  

Verse 1
There's something in the street tonight 
Don't know what it is, But it won't keep quiet

Verse 2
There's something in the world today
I Don't know what is, But it sure smells rotten

e|----------------|----------------|----------------|----------------|
B|----------------|----------------|----------------|----------------|
G|----------------|----------------|7---7-7-7-7-7-7-|7-7-7-7-7-7-7-7-|
D|8---8-8-8-8-8-8-|5---5-5-5-5-5-5-|7---7-7-7-7-7-7-|7-7-7-7-7-7-7-7-|
A|8---8-8-8-8-8-8-|5---5-5-5-5-5-5-|5---5-5-5-5-5-5-|5-5-5-5-5-5-5-5-|
E|6---6-6-6-6-6-6-|3---3-3-3-3-3-3-|----------------|----------------|

Verse 1
Breaking through your masses on your radio broadcaster 

Verse 2
Babylon's burning and the fire seems water proof

e|----------------|----------------|----------------|----------------|
B|----------------|----------------|----------------|----------------|
G|7---7-7-7-7-7-7-|7-7-7-7-7-7-7-7-|----------------|----------------|
D|7---7-7-7-7-7-7-|7-7-7-7-7-7-7-7-|3---3-3-3-3-3-3-|3-3-3-3-3-3-3-3-|
A|5---5-5-5-5-5-5-|5-5-5-5-5-5-5-5-|3---3-3-3-3-3-3-|3-3-3-3-3-3-3-3-|
E|----------------|----------------|1---1-1-1-1-1-1-|1-1-1-1-1-1-1-1-| 

Verse 1
There's something in the air tonight
And it's turning in to a full fledged riot 

Verse 2
There's someone in your home tonight
You think you know who they are, But something ain't so right

e|----------------|----------------|---------------|-----------------------|
B|----------------|----------------|---------------|-----------------------|
G|----------------|----------------|7---7-7-7-7-7-7|12-12-12-12-12-12-12-12|
D|8---8-8-8-8-8-8-|5---5-5-5-5-5-5-|7---7-7-7-7-7-7|12-12-12-12-12-12-12-12|
A|8---8-8-8-8-8-8-|5---5-5-5-5-5-5-|5---5-5-5-5-5-5|10-10-10-10-10-10-10-10|
E|6---6-6-6-6-6-6-|3---3-3-3-3-3-3-|---------------|-----------------------|

Verse 1        
Signing for the last dance for someone trying to find the truth

Verse 2
I look at them in a way but they don't feel they same about me

Chorus
e|----------------|----------------|
B|----------------|----------------|
G|7-7-7-7---------|----------------|
D|7-7-7-7-3-3-3-3-|8-8-8-8-5-5-5-5-|
A|5-5-5-5-3-3-3-3-|8-8-8-8-5-5-5-5-|
E|--------1-1-1-1-|6-6-6-6-3-3-3-3-|

All nine lives
I'm gonna come right back for you
All nine lives
I'm gonna come right back for you

Bridge - Guitar One plays intro

Guitar Two
e|----------------|----------------|----------------|----------------|
B|----------------|----------------|----------------|----------------|
G|7-7-7-7-7-7-7-7-|7-7-7-7-7-7-7-7-|----------------|----------------|
D|7-7-7-7-7-7-7-7-|7-7-7-7-7-7-7-7-|5-5-5-5-5-5-5-5-|5-5-5-5-5-5-5-5-|
A|5-5-5-5-5-5-5-5-|5-5-5-5-5-5-5-5-|5-5-5-5-5-5-5-5-|5-5-5-5-5-5-5-5-|
E|----------------|----------------|3-3-3-3-3-3-3-3-|3-3-3-3-3-3-3-3-|

And I run and I run and I ride and I ride
And I live and I live and I die and I die
And I know it was all for you and me

END ON
e|---|
B|---|
G|12-|
D|12-|
A|10-|
E|---|
            
Submit corrections

comments powered by Disqus
↑ Back to top | Rancid Tabs for Something In The World Today. Lyrics for acoustic guitar and electric guitar. Tablatures and chords are parodies/interpretations of the original songs. You may use it for private study, scholarship, research or language learning purposes only