» » »

Rancid, Solidarity Bass tabs (ver.1)

Artists:  A B C D E F G H I J K L M N O P Q R S T U V W X Y Z # 

Solidarity Bass tabs (ver.1)

Rancid Tabs
Rating:
0/5 (0 votes)
Solidarity lessons Tabs too difficult? Try these video lessons and learn fast
                Intro
G-----------------------------
D-----------------------------
A-3-3-3-3---------3-3-5--------
E--------5-5-5-5-------1-1-1-1

Chorus 
G----------------
D----------------
A-3-----------3---
E----3---1-------

Verse
G---------------------------------
D--------------------------------
A-3-3-3-3-3-3-3-2-1-1-1-3---0-1-2-3
E------------------------1--------

Guitar Solo
G-------------------------------
D-5-5-5-5-2-2-2-2-5-5-5-5-5-5-5-5
A-------------------------------
E-------------------------------
            
Submit corrections

comments powered by Disqus
↑ Back to top | Rancid Bass for Solidarity. Lyrics for acoustic guitar and electric guitar. Tablatures and chords are parodies/interpretations of the original songs. You may use it for private study, scholarship, research or language learning purposes only