» » »

Rancid, Rejected Bass tabs (ver.1)

Artists:  A B C D E F G H I J K L M N O P Q R S T U V W X Y Z # 

Rejected Bass tabs (ver.1)

Rancid Tabs
 Rating:
4/5 (4 votes)
Rejected  lessons Tabs too difficult? Try these video lessons and learn fast
                (2)
Im positive this is how i is played

intro
G|--------------0-2-3-3-2-2-0-0-------4-4-3-2-2------|
D|-2-------0-2-------------------2-2-------------0---|
A|-----0-2-------------------------------------------|
E|---------------------------------------------------|

G|-------------0-2-3-3-2-2-0-0-----------------------|
D|-2------0-2-------------------2-2------------------|
A|----0-2--------------------------------------------|
E|---------------------------------------------------|

pre verse/chorus/bridge
G|---------------------------------------------------|
D|---------------------------------------------------|
A|--2---2---2---2--2-2-2-2-2-2-2-2-2-2-2-2-2-2-2-2---|
E|---------------------------------------------------|

verse
G|--------------------------------------------------------------------|
D|-----------------2-0--------------------2-0-------------------------|
A|---------------------2-3-3-3-3-3-3-3-3------2-----------------2-0---|
E|-0-0-0-0-0-0-0-0------------------------------3-3-3-3-3-3-3-3-----3-|

G|--------------------------|
D|--------------------------|
A|-0-0-0-0-0-0-0-0----------|
E|------------------3-2-0---|


chorus
G|--------------------------------------------------------|
D|--------------------------------------------------------|
A|-7-7-7-7-7-7-7-------------------------------0-4-5-6----|
E|----------------8-8-8-8-8-8-8--3-3-3-3-3-3-3------------|

G|---------------------------------------------------------|
D|---------------------------------------------------------|
A|---------------------------------------------------------|
E|--7---7---7---7---7-7-7-7-7-7-7-7-7-7-7-7-7-7-7-7--------|

bridge
G|-------------------------------|
D|------------5------------------|
A|-7-----5-7----7-7-5-5-7-7------|
E|---5-7-------------------------|

G|------------------------------------------------------------|
D|------------------------------------------------------------|
A|-7-7-7-7-7-7-7-7-7-7-7-7-7-7--------------------------------|
E|------------------------------7-7-7-7-7-7-7--5-5-5-5-5-5-5--|

i cant be bothed working out the timing but im sure your all capable of that
please rate this
            
Submit corrections

comments powered by Disqus
↑ Back to top | Rancid Bass for Rejected. Lyrics for acoustic guitar and electric guitar. Tablatures and chords are parodies/interpretations of the original songs. You may use it for private study, scholarship, research or language learning purposes only