» » »

Rancid, Not To Regret Bass tabs (ver.1)

Artists:  A B C D E F G H I J K L M N O P Q R S T U V W X Y Z # 

Not To Regret Bass tabs (ver.1)

Rancid Tabs
Rating:
0/5 (0 votes)
Hard to play? Try these video lessons and learn fast.
                Intro
G|----14-16-14-16-------14-16-|--------|
D|-16-------------16-16-------|-16\11>-|Hit the notes in between
A|----------------------------|--------|on that slide
E|----------------------------|--------|

Verse
G|--------------------------------------------------|
D|---7-9-11-9-7-9-6-7-5-6---------------------------|There are some licks
A|-9----------------------7-4-6-77777-6-7-8-9>--7-8-|you have to do on the
E|---------------------------------------------9----|6-7- and 5-6- to make it
                                                     sound right
Chorus
G|-------------------------|
D|--------2-3-4------2-3-4-|
A|-555555------------------|
E|--------------22222------|

G|--------------|----------|
D|------2-3-4---|----------|
A|-55555--------|-2>-4>-5>-|
E|------------2-|----------|

Ending
G|---------|
D|---------|
A|-4~-2>-2-|
E|---------|
            

comments powered by Disqus
↑ Back to top | Rancid Bass for Not To Regret. Lyrics for acoustic guitar and electric guitar. Tablatures and chords are parodies/interpretations of the original songs. You may use it for private study, scholarship, research or language learning purposes only