>
 >
Memphis 2

Memphis 2 Bass Tabs

Rancid - Memphis 2 chords, tabs, tablatures, lyrics

Guitar lessons | Add/correct | Request | Top 50 tabs Artists:  A B C D E F G H I J K L M N O P Q R S T U V W X Y Z 0-9

Memphis 2 Bass Tabs – Rancid

CD, Sheet music, Poster

Do you like Memphis 2? Share with your friends now
Bass TabsBass Tabs v2TabsTabs v2

Rancid: Memphis

Intro
-------------------------------|
-------------------------------|
-3-3-3-3-3-3-3-3-3-3-3-3-3-3---|
-----------------------------3-|

Pre-Chorus   (Play during the pickslide befor the chorus)
-----------|
--5-5------|
------3-3--|
-----------|

Chorus
-------------------------------------------------------------------------|
----------2-222222-3-33333/5--------------------------2/5555555555-3-2-0-|
--33333333-------------------3-33-333-0-00-000---------------------------|
----------------------------------------------333-333--------------------|

Bridge
---------------------------------------5-555555/7-------------|
-3-333-3-333-2-22222222-5-555555-5-5/7------------5-555555/7--|
--------------------------------------------------------------|
--------------------------------------------------------------|

Outro
--------|
--------|
-3-2-3--|
--------|


Order
Intro
Verse (No bass in verse just singing)
Pre-Chorus
Chorus
Verse (No bass)
Pre-Chorus
Chorus
Intro
Bridge
Pre-Chorus
Chorus
Intro
Outro





Comments


Popular Rancid tabs & chords
1998 2 Bass Tabs
Dont Care Nothin Bass Tabs
Journey To The End Of The East Bay Bass Tabs
Life Won't Wait 1 Bass Tabs
Maxwell Murder 8 Bass Tabs
The Bottle Bass Tabs
YOU DON't CARE NOTHIN' Bass Tabs
1998 Tabs
Hyena 1 Tabs
Roots Radicals 1 Tabs


Song lyrics



↑ Back to top | Tablatures and chords are parodies/interpretations of the original songs. You may use it for private study, scholarship, research or language learning purposes only
© 2014 AZChords.com Contact us | Privacy policy | DMCA | Add/correct tabs | Request tabs | Top 50 tabs