» » »

Maxwell Murder Tabs (ver.3)

Artists:  A B C D E F G H I J K L M N O P Q R S T U V W X Y Z # 

Maxwell Murder Tabs (ver.3)

Rancid
Rating:
0/5 (0 votes)

Hard to play? Try these video lessons and learn fast.
                This is my first Rancid tab and the first song
I've ever heard by them, so enjoy.

Intro/Verse:

e/-----------
b/-----------
g/7------5---
d/7------5--5
a/5------3--5
e/----------3 x2 then:

e/------------------
b/------------------
g/77777777-5555-----
d/77777777-5555-5555
a/55555555-3333-5555
e/--------------3333 x2

Chorus:

e/------------------
b/------------------
g/99999999------7777
d/99999999-7777-7777
a/77777777-7777-5555
e/---------5555----- x3 then

e/---------------
b/---------------
g/9999-7777------
d/9999-7777-7777
a/7777-5555-7777-11111111 (these are 11s)
e/----------5555--9-9-9-9

Order:

Intro/Verse
Chorus
Intro/Verse
Chorus
(bass solo)
Chorus
            
Hard to play? Try these video lessons and learn fast. | Correct




comments powered by Disqus
↑ Back to top | Tablatures and chords are parodies/interpretations of the original songs. You may use it for private study, scholarship, research or language learning purposes only