» » »

Rancid, Ivory Coast Bass tabs (ver.2)

Artists:  A B C D E F G H I J K L M N O P Q R S T U V W X Y Z # 

Ivory Coast Bass tabs (ver.2)

Rancid Tabs
Rating:
0/5 (0 votes)
Ivory Coast lessons Tabs too difficult? Try these video lessons and learn fast
                intro:

3 times      in 4 time
G|----------|---------------|
D|----------|---------------|
A|--888888--|-88888-8-6-5---|
E|--------6-|------------8-6|


Base:

"...for 24 hours on the Ivory Coast..."
G|------------------------------------------------|
D|------------------------------------------------|
A|--------6666------------10101010-9/10-----------|
E|-6666666----666-6666666--------------10-8-666666|

		         "..They said tonight.." 
G|--------------------------------|-----------------------|
D|--------------------------------|-----------------------|
A|--------6666------------10101010|-0-6-7-888888-6666-----|
E|-6666666----666-6666666---------|------------------6666-|


"..and the bullets will let you know..."
G|-----------------------|
D|-----------------------|
A|-8888888888-666666666--|
E|-----------------------|

Chorus:

"..who is the killer.."
G|--------------------|
D|--------------------|
A|----------666666666-|
E|-66666666-----------|


End:

G|-----------|
D|-----------|
A|-6---6-----|
E|---8--8--6-|



"Ivory Coast"

For 24 hours on the Ivory Coast,
They release soldiers from their post,
They dedicate champagne, for a toast,
They pay dividends to the country's host.

They said, "Tonight, you can leave your home,
But tomorrow, but tomorrow, it's gonna be the way of the gun",
And the curfew, won't allw you to roam, roam, roam,
And the bullets will let you know, when the big dog comes 'round your door....

Who is the killer?
(Wooooh ohhh oh!)
Who is the killer?
(Wooooh ohhh oh!)
Stone-cold killer,
(Woooooh ohhh oh!)
Food for the trigger,
(Wohhhh ohh ohh!)

I'll shoot ya down, right on sight,
If you're out at the wrong time of night,
And in a civil war, there's no civil rights,
In the dead of day, run for your life.

They said, "Tonight, you can leave your home,
And tomorrow, it's gonna be the way of the gun",
And the curfew, won't let you roam, roam, roam,
And the bullets will let you know, when the big dog comes 'round your door....

Who is the killer?
(Wooooh ohhh oh!)
Who is the killer?
(Wooooh ohhh oh!)
Stone-cold killer,
(Woooooh ohhh oh!)
Food for the trigger,
(Wohhhh ohh ohh!)

And the trenches are dug,
And the bones ain't too shiver,
The tastes of war, so cold and bitter,
And the human race is the face of the killer,
And the cost of life is rarely considered.

They said, "Tonight, you can leave your home,
But tomorrow, but tomorrow, it's gonna be the way of the gun",
And the curfew, won't let you roam, roam, roam,
And the bullets will let you know, when the big dog comes 'round your door....

Who is the killer?
(Wooooh ohhh oh!)
Who is the killer?
(Wooooh ohhh oh!)
Stone-cold killer,
(Woooooh ohhh oh!)
Food for the trigger,
(Wohhhh ohh ohh!)
            
Submit corrections

comments powered by Disqus
↑ Back to top | Rancid Bass for Ivory Coast. Lyrics for acoustic guitar and electric guitar. Tablatures and chords are parodies/interpretations of the original songs. You may use it for private study, scholarship, research or language learning purposes only